Age Of Electric — My Mistake

My Mistake-The Age Of Electric
Tabbed by Yerp
rhergott@bserv.com email me with any questions or comments.
Tuning: E A D G

h= hammer on

Riff 1 (at the beginning, when the guitar starts, count to eight and then play)
G|-----------------------|
D|-----------------------|
A|---------3333-11111111-|
E|-3-0-1-3---------------|

Play once and then play this once:
G|------------------------|
D|------------------------|
A|---------3333-1111111-0-|
E|-3-0-1-3----------------|

Play Riff 1 one more time and then play:

Riff 1-2
G|---------------------------|
D|-------------------------0-|
A|---------3333-111111-1h3---|
E|-3-0-1-3-------------------|

Then play Riff 1 for a bit. Then play:

Riff 2
G|---------222------333--3---3-------------222-----333-3---3---3-3h5-
D|-555-2h3------2h3--------3---3-3-555-2h3-----2h3-------3---3-------
A|-------------------------------------------------------------------
E|-------------------------------------------------------------------

Cont'd
G|---------------------------------222-----333---55-5h7/-|
D|-555---333-3-222-2-111-/555-2h3------2h3-----3---------|
A|-----5-------------------------------------------------|
E|-------------------------------------------------------|

Riff 3
G|------------------------------------|
D|------------------------------------|
A|-3333-11-0-1----------3333-11-0-1---|
E|-------------11111111-------------1-|

Play Riff 1 once, Riff 1-2 once, Riff 1 once, Riff 1-2 once
and then Riff 1 twice. Then play Riff 2 adding a slight fill:
G|---------222-----333---3---3-=3h5=-
D|-555-2h3-----2h3-----3---3---------
A|-----------------------------------
E|-----------------------------------
Just play the rest of Riff 2...

Then play:


G|-------------------------------------------------------------------
D|-----------333---3---3--------------------------------3333---3---3-
A|-3333-1111-----3---3---3333-11-0-1----------3333-1111------3---3---
E|-----------------------------------11111111------------------------

Cont'd
G|--------------------------------------------------------------|
D|----------------------------------33333333--------------------|
A|-3333-11-0-1----------3333-11-0-1----------3333-1111----------|
E|-------------11111111--------------------------------11111111-|

Then play Riff 2(with the fill) but move it up two frets so the
first note is 7 on D instead of 5.

Play this until the end:
G|-----------55555555-|
D|-5555-7777----------|
A|--------------------|
E|--------------------|
Add a fill here and there.

The End. Have fun, it's easier than it seems.