Agent Orange — Bloodstains

----------------------------------------------------------------------------
BLOODSTAINS ? Agent Orange
----------------------------------------------------------------------------

Brought to you BY: DEXTER ROTTEN IMBECIL email: punkrockdexter@hotmail.com

()=4 times
[]=2 times
=slide down
/=slide up
h=hammer-on
p=pull-off

Intro:
e|------------------|
B|------------------|
G|------------------|
D|-4-4-4-4-4-42-5--|
A|-4-4-4-4-4-42-5--|
E|-2-2-2-2-2-2-3--|
pm_________/

Verse:
e|---------------------------------------------------------------------|
B|---------------------------------------------------------------------|
G|---------------------------------------------------------------------|
D|-(4-4-4-4-4-42-5)--2-2-2-2-2-23--2-2-2-2-25--[4-4-4-4-4-42-5]----|
A|-(4-4-4-4-4-42-5)--2-2-2-2-2-23--2-2-2-2-25--[4-4-4-4-4-42-5]----|
E|-(2-2-2-2-2-2-3)--0-0-0-0-0-01--0-0-0-0-03--[2-2-2-2-2-2-3]----|
pm _________/ _________/ _________/ _________/

Chorus:
e|-----------------------------------------------------|
B|-----------------------------------------------------|
G|-----------------------------------------------------|
D|-[2-2~]-[4-4-4-4-4-42-5]--[2-2~]-4-4-4-4-4-42-5-4--|
A|-[2-2~]-[4-4-4-4-4-42-5]--[2-2~]-4-4-4-4-4-42-5-4--|
E|-[0-0~]-[2-2-2-2-2-2-3]--[0-0~]-2-2-2-2-2-2-3-2--|

Solo:
e|-----------------------------------------------------|
B|-----------------------------------------------------|
G|-----------------------------------------------------|
D|-----------------------------------------------------|
A|-----1-2-4-2-4-2-1-2-1-2-4-4-4-4-2-1-1-1-1-2-4-4-5---|
E|-2-2-2-2-3-------------------------------------------|

e|----------------------------------------|
B|----------------------------------------|
G|----------------------------------------|
D|-------3-0-3h4-6p4-3p0-3p0--------------|
A|---------------------------5-5-4-5-5-4--|
E|----------------------------------------|

e|---------------------------------------------------------|
B|---------------------------------------------------------|
G|----------3-4-3-4/6-6-4-3-4/6-4-3-4/6-4-3-4/6-4-3-4-3h4p3|
D|4-0-3-0-3-4----------------------------------------------|
A|---------------------------------------------------------|
E|---------------------------------------------------------|


e|---------------------------------------|
B|---------------------------------------|
G|--3-4-3--------------------------------|
D|--4-----------------3-0-3-4-3----------|
A|-------5-5-5-5-4-5---------------------|
E|---------------------------------------|