Agent Orange — Everything Turns Grey

-------------------------------------------------------------------------------
Everything Turns Grey - Agent Orange
-------------------------------------------------------------------------------

Tabbed by: Tyson


Tuning: Standard
Intro
A Penatonic minor Scale (3 Times)
e|---------------------|
B|---------------------|
G|---------------------|
D|---7-7-5-5-----------|
A|-----------7-5-------|
E|---------------8-5---|

Guitar 1
Play these chords for verse and basically the rest of the song, listen to the
song to figure out how many times each is played.
e|---------------------------------------------------------------------------|
B|---------------------------------------------------------------------------|
G|----------------------5-------7--------------------------------------------|
D|--7---------9---------5-------7--------------------------------------------|
A|--7---------9---------3-------5--------------------------------------------|
E|--5---------7--------------------------------------------------------------|


Guitar 2
These are played with the chords above.
e|---------------------------------------------------------------------------|
B|---------------------------------------------------------------------------|
G|--7---------9--------10-------12-------------------------------------------|
D|--x---------x--------x---------x-------------------------------------------|
A|--5---------7--------8--------10-------------------------------------------|
E|---------------------------------------------------------------------------|

Thats the whole song excpet the solo.