Agent Orange — Pipeline

--------------------------------------------------------------------------- 
PIPELINE - Agent Orange
---------------------------------------------------------------------------

By: RodneyRoach@morebeer.com

intro
e|------------------------------------------------------------------------|
B|------------------------------------------------------------------------|
G|------------------------------------------------------------------------|
D|--2-----------------palm mute and hit each once all the way to 1--------|
A|--2---------------------------------------------------------------------|
E|--0----------------14-13-12-11--------->1-------------------------------|

Verse
----PM----
e|------------------------------------------------------------------------|
B|------------------------------------------------------------------------|
G|------------------------------------------------------------------------|
D|------------------------------------------------------------------------|
A|----22-22---------------------------------------------------------------|
E|----00-33---------------------------------------------------------------|

Chorus part 1
e|------------------------------------------------------------------------|
B|------------------------------------------------------------------------|
G|------------------------------------------------------------------------|
D|-----0--2--0--2--4--2--0--2--4--2--4--2--0--2--0------------------------|
A|---2---------------------------------------------2----------------------|
E|------------------------------------------------------------------------|

Chorus part 2
e|------------------------------------------------------------------------|
B|------------------------------------------------------------------------|
G|-----0--2--0--2--4--2--0--2--4--2--4--2--0--2--0------------------------|
D|---2------------------------------------------------2-------------------|
A|------------------------------------------------------------------------|
E|------------------------------------------------------------------------|

Chorus part 3
-------PM------
e|------------------------------------------------------------------------|
B|------------------------------------------------------------------------|
G|------------------------------------------------------------------------|
D|---999999-101010101010---X2---999999999---7-------same as in------------|
A|---999999-101010101010--------999999999---7--------intro----------------|
E|---777777-8-8-8-8-8-8---------777777777---5-----14>>>>>>>>>>>>1---------|

Bridge
e|----------------0-------------------------------------------------------|
B|--1-----------1---3-1--0----------0-3-1---------------1-0---------------|
G|-----2-2--2-2------------0-0--0-0--------2----------2-----21212121------|
D|-------------------------------------------3-3--3-3---------------------|
A|------------------------------------------------------------------------|
E|------------------------------------------------------------------------|

Intro
Verse
Chorus
verse
chorus
bridge
verse

you'll get the rest, i cant think of the entire order

============================================================================