Agnostic Front — Bloodsucker

AGNOSTIC FRONT-BLOODSUCKER
Tabbed By Ben H (PunkAsPhuck)

intro/verse
e|--------------------------|
B|--------------------------|
G|-9-9--9-9-----------------|
D|-9-9--9-9-10-9-9--9-9-9---|
A|-7-7--7-7-10-9-9--9-9-9---|
E|----------8--7-7--7-7-7---| x6

chorus
e|----------------------------------|
B|----------------------------------|
G|----------------------------------|
D|-10-9-9--10-9-9--10-9-9--7-7------|
A|-10-9-9--10-9-9--10-9-9--7-7------|
E|-8--7-7--8--7-7--8--7-7--5-5------| x2

intro/verse
chorus

bridge
e|-------------------------|
B|-------------------------|
G|-9-----7-9-9-9-9-9-7-9---|
D|-9-9-5-7-9-9-9-9-9-7-9---|
A|-7-9-5-5-7-7-7-7-7-5-7---|
E|---7-3-------------------| x2

verse
chorus x 2
bridge