Agnostic Front — Discriminate Me

----------------------------------------
DISCRIMINATE ME - Agnostic Front
----------------------------------------


SONG: Discriminate Me
BAND: Agnostic Front
TABBED BY: C. Hall


verse
e|------------------------|
B|------------------------|
G|------------------------|
D|--5/7-5/7-5/7-5/7-------|
A|--3/5-3/5-3/5-3/5-7-----|
E|------------------5-----|

chorus
e|------------------------|
B|------------------------|
G|------------------------|
D|--------------9-9-9-----|
A|--7-7-7-7-7-7-7-7-7-10--|
E|--5-5-5-5-5-5------- 8--|