Agnostic Front — Friend Or Foe

На этой странице Вы можете ознакомиться с 2 версиями подбора аккордов для гитары к песне "Friend Or Foe" группы (исполнителя) "Agnostic Front".

song: Friend or foe

band: Agnostic Front

album: Live 93 'Last Warning'

tabbed by: Carlos Pino

homepage: Http://members.xoom.com/VoodooPino/



verse x4

G|----------------------------------------------------------------------|

D|-----------------------------------------------------------------------|

A|-2-2-2-2-2-2-2-2-5-----------------------------------------------|

E|--------------------------5-3-5-3-5---------------------------------|



Chorus: Repeat Friend Foe x2

G|-------------------------------------------------------------------------

D|-------------------------------------------------------------------------

A|-3-3-3-2-2-2-3-3-3-2-2-2---3-3-3-2-2-2-3-3-3-2-2-2------

E|-------------------------------------------------------------|



Are you friend or foe?

G|-------------------------------------------------------------|

D|-------------------------------------------------------------|

A|-5-----------------------------------------------------------|

E|------5----3-----5--3----------------------------------------|
song: Friend or foe

band: Agnostic Front

album: Live 93 'Last Warning'

tabbed by: Carlos Pino

homepage: Http://members.xoom.com/VoodooPino/

verse x4

G|----------------------------------------------------------------------|

D|-----------------------------------------------------------------------|

A|-2-2-2-2-2-2-2-2-5-----------------------------------------------|

E|--------------------------5-3-5-3-5---------------------------------|

Chorus: Repeat Friend Foe x2

G|-------------------------------------------------------------------------

D|-------------------------------------------------------------------------

A|-3-3-3-2-2-2-3-3-3-2-2-2---3-3-3-2-2-2-3-3-3-2-2-2------

E|-------------------------------------------------------------|

Are you friend or foe?

G|-------------------------------------------------------------|

D|-------------------------------------------------------------|

A|-5-----------------------------------------------------------|

E|------5----3-----5--3----------------------------------------|