Agnostic Front — Love To Be Hated

Tabbed by: Teh Edster
Email: I3irthDefect@aol.com
Artist: Agnostic Front
Song: Love To Be Hated
*Not Showing Strumming Patterns*
- Slide Down
/ - Slide Up
Tuning:EADEGBe



Intro/Chorus-

e|----------------| e|-----------|
B|----------------| B|-----------|
G|----------------| (x3) G|-----------| (x1)
D|--7-7--5-5-5-/-| D|--7-7-7-7--|
A|--7-7--5-5-5-/-| A|--7-7-7-7--|
E|--5-5-0-3-3-3-0-| E|--5-5-5-5--|


e|----------------|
B|----------------|
G|-7-7--5-5-5-/--|
D|-7-7--5-5-5-/--| (x2)
A|-5-5-0-3-3-3-0--|
E|----------------|

Verse-

e|---------------------------|
B|---------------------------|
G|--7-7-5-5-5-8-8-7-7--------|
D|--7-7-5-5-5-8-8-7-7-7-7-7--| (x2)
A|--5-5-3-3-3-6-6-5-5-7-7-7--|
E|--------------------5-5-5--|

Solo-

e|---------------------------------------------------------------------------------------|
B|------------------------------------------------/10-10~---10-10~---10-10~-------10-10~-|
G|--/7-7-5-5-8-8-7-7-2-2-1-2--/7-7-5-5-8-8-7-7-2--------------------------11-11----------|
D|---------------------------------------------------------------------------------------|
A|---------------------------------------------------------------------------------------|
E|---------------------------------------------------------------------------------------|

Guitar 2 - Breakdown -

e|----------------------------------------------------------------------------|
B|----------------------------------------------------------------------------|
G|--7-7-5-5-5-8-8-7-7------------9-9-9-5-7-7-7-------------5-5-5-7-7-7-7------|
D|--7-7-5-5-5-8-8-7-7-7-7-7------9-9-9-5-7-7-7-------9-9-9-5-5-5-7-7-7-7------|
A|--5-5-3-3-3-6-6-5-5-7-7-7-(x2)-7-7-7-3-5-5-5-(x3)--9-9-9-3-3-3-5-5-5-5-(x1)-|
E|--------------------5-5-5--------------------------7-7-7--------------------|

Ending -

e|----------------|
B|----------------|
G|----------------| Keep Repeating (Slowly Fade Out)
D|--7-7--5-5-5-/-|
A|--7-7--5-5-5-/-|
E|--5-5-0-3-3-3-0-|


Song-
Intro
Verse
Chorus
Verse
Chorus
Solo (While Gtr. 2 Is playing the Breakdown)
Chorus
Verse
Chorus