Agnostic Front — Riot Riot Upstart

AGNOSTIC FRONT - Riot, Riot Upstart
-------------------------------------
Album: Working class heroes
( split-CD with DISCIPLINE!!!!: The best live show ever)


Intro:
G|-------------------------------------------------|
D|-------------------------------------------------|
A|-------------0-0-0-0-0-0-3-3-3-3-3-3-5-5-5-5-5-5-|
E|-0-0-0-0-0-0-------------------------------------|

verse:
G|-------------------------------------------------|
D|-------------------------------------------------|
A|-------------------------------5-5-5-5-5-5-5-5-5-|
E|-0-0-0-0-0-0-0-0-0-0-0-0-0-0-0-------------------|

G|-------------------------------------------------|
D|-------------------------------------------------|
A|-------------------3-3-3-3-3-3-3-5-5-5-5-5-5-5-5-|
E|-0-0-0-0-0-0-0-0-0-------------------------------|

pre-chorus:
G|-------------------|
D|-------------------|
A|-7-7-5-5-0-0-0-0-2-|
E|-------------------|

chorus:
G|-----------------------------------------|
D|-----------------------------------------|
A|-2-*-2-*-2-----------5-5-5-5-5-3-3-3-3-3-|
E|-----------0-0-0-0-0---------------------|

Bridge:
G|---------------3-5-3-----|
D|-----------3-5-------5-3-|
A|-7-7-3-3-5---------------|
E|-------------------------|

tabbed by 'S o H' bert
e-mail: bertdedecker1@hotmail.com