Agnostic Front — Your Mistake

На этой странице Вы можете ознакомиться с 2 версиями подбора аккордов для гитары к песне "Your Mistake" группы (исполнителя) "Agnostic Front".

song: Your mistake

band: Agnostic front

album: live 93 'Last Warning'

tabbed by: Carlos Pino

homepage: http://members.xoom.com/VoodooPino/



p=palm muted



INTRO:

G:-----------------------|

D:-------------------------|

A:-5>---4>---------------|

E:-------------7>----------|



VERSE:

G:----------------------------|

D:----------------------------|

A:---------------------5---4--|

E:-7--7777777------------|



CHORUS:

G:---------------------|

D:---------------------|

A:-------------------------

E:-7-7-7-7---3----5----|



BRIDGE:

G:-------------------------------------|

D:-------------------------------------|

A:----------7-7-7--------------------|

E:-7-7-7----------7-7-7--3---5---|
song: Your mistake

band: Agnostic front

album: live 93 'Last Warning'

tabbed by: Carlos Pino

homepage: http://members.xoom.com/VoodooPino/

p=palm muted

INTRO:

G:-----------------------|

D:-------------------------|

A:-5>---4>---------------|

E:-------------7>----------|

VERSE:

G:----------------------------|

D:----------------------------|

A:---------------------5---4--|

E:-7--7777777------------|

CHORUS:

G:---------------------|

D:---------------------|

A:-------------------------

E:-7-7-7-7---3----5----|

BRIDGE:

G:-------------------------------------|

D:-------------------------------------|

A:----------7-7-7--------------------|

E:-7-7-7----------7-7-7--3---5---|