Aha — Forever Not Yours

Gm:    -355333-
Cm: -x35543-
Dm: -x57765-
Bb: -x13331- or: -688766-|
Am: -577555- or: -x02210-|

Intro:

Bb Gm Dm Cm
E|--6-5-6------3-1-3-----------------|
B|------------------------3-1-3--1---|
G|-----------------------------------|
D|-----------------------------------|
A|-----------------------------------|
E|-----------------------------------|

Bb Gm Dm Cm
E|--6-5-6------3-1-3-----------------|
B|------------------------3-1-3--1---|
G|-----------------------------------|
D|-----------------------------------|
A|-----------------------------------|
E|-----------------------------------|

Bb Gm Bb Am Gm
E|--6-5-6------3-1-3------6-5-6--5-3-5---3-1-3--3-3-1-3-1-3---3-3-1-3-1-3---3-3-1-3-1-3--|
B|---------------------------------------------------------------------------------------|
G|---------------------------------------------------------------------------------------|
D|---------------------------------------------------------------------------------------|
A|---------------------------------------------------------------------------------------|
E|---------------------------------------------------------------------------------------|