Aha — Velvet

На этой странице Вы можете ознакомиться с 2 версиями подбора аккордов для гитары к песне "Velvet" группы (исполнителя) "Aha".

#----------------------------------PLEASE NOTE--------------------------------#
#This file is the author's own work and represents their interpretation of the#
#song. You may only use this file for private study, scholarship, or research.#
#-----------------------------------------------------------------------------#
#-- File created with Instab - http://www.pconline.com/~smcarey/instab.html --#
#-----------------------------------------------------------------------------#

Author/Artist: A-ha
Title: Velvet
Album: Minor Earth Major Sky
Transcribed by: Eugene Odnoval
Email: odnoval@mail.ru
intro:
C G Dm F C G Dm F strum several times
---0---------------1---------------0---------------1---1----------------------|
-1---0-1-0h1p0-----------------------------------------1----------------------|
---------------0---------------------0-2-2/4-0-0-------2----------------------|
-----------------3---2-3-2h3p2-------------------3---3-3----------------------|
-------------------------------3-3--------------------------------------------|
------------------------------------------------------------------------------|
riff:
C G Dm F C G Dm F
----5/7-3--0p1-----|----5/7---0p1---| one guitar plays chords( C G Dm F)
-------------------|----------------| another guitar plays riff and then
-------------------|----------------| melody
-------------------|----------------|
-------------------|----------------|
-------------------|----------------|

melody:
C G Dm F C G Dm F
--8-7-8-7h8p7---------------------5-7-----------------------------------------|
--------------8-6-5-6-5h6p5-----8-----8-6-5-6-5h6p5---------------------------|
----------------------------5-5---------------------5-5-----------------------|
------------------------------------------------------------------------------|
------------------------------------------------------------------------------|
------------------------------------------------------------------------------|
C G Dm F
Her skin is like velvet
Her face cut from stone
Her eyes when she's smiling
Will never reach home
F C G Dm F(play with melody)
But hear how she sings

Her touch would be tender
Her lips would be warm
But when we're together
I'm always alone
But hear how she sings
But hear how she sings
Hear how she sings

Her skin is like velvet
So I went to her home
Her place like a palace
With things you can't own
Her skin is like velvet
And hear how she sings
Hear how she sings...

So, that's all. Enjoy playing this song.
Any Comments, corrections and additions are welcome!
h= hammer-down

G D Am
E--3--2--x----
B--3--3--1----
G--0--2--2----
D--0--x--2----
A--2--x--x----
E--3--x--x----

Intro:
G D Am C Repeat:
E|-------3---2--3h--3---------------------------------------------|
B|-------3---3---------2--1----0--1--0----------------------------|
G|----0------2------------2----0r------0--------------------------|
D|------------------------2---------------------------------------|
A|-----------------------------3r---------------------------------|
E|--3-------------------------------------------------------------|