Air Quake — Some Chinese Song

Artist: Air Quake
Title: Some Chinese Song
Tabbed by: Robert Hancock (plays guitar for Air Quake)
& Steve Hobbs (bass player of Air Quake)

Intro:

e|--5---3--0-----0--3---5---5--7--8--7--8--7--3--5--|
B|--------------------------------------------------|
G|--------------------------------------------------| x2
D|--------------------------------------------------|
A|--------------------------------------------------|
E|--------------------------------------------------|

e|--------------------------------------------------|
B|--------------------------------------------------|
G|-2------4---5------4------------------------------|
D|-2-(x8)-4---5-(x3)-4-(x2)-5-(x2)------------------|
A|-0------2---3------2------5-----------------------|
E|--------------------------3-----------------------|

e|--------------------------------------------------|
B|--------------------------------------------------|
G|-2------------------------------------------------|
D|-2-(x8)-5-(x3)-7-(x3)-9-(x2)----------------------|
A|-0------5------7------9---------------------------|
E|--------3------5------7---------------------------|

e|--------------------------------------------------|
B|--------------------------------------------------|
G|-2------7------5------4---------------------------|
D|-2-(x8)-7-(x3)-5-(x3)-4-(x2)----------------------|
A|-0------5------3------2---------------------------|
E|--------------------------------------------------|

e|--------------------------------------------------|
B|--------------------------------------------------|
G|--------------------------------------------------|
D|-2------------------------------------------------|
A|-2--(let ring for about 4 seconds)----------------|
E|-0------------------------------------------------|

Then fast bit:(palm muted except for the first note)

e|--------------------------------------------------|
B|--------------------------------------------------|
G|-2------------------------------------------------|
D|-2-(x16)------------------------------------------| x2
A|-0------------------------------------------------|
E|--------------------------------------------------|

That's what we came up with of this song so far.
Hopefully we'll have it done soon.