Air Supply — All Out Of Love

На этой странице Вы можете ознакомиться с 2 версиями подбора аккордов для гитары к песне "All Out Of Love" группы (исполнителя) "Air Supply".

I was looking at some of the various works in this archive and stumbled
across this song. The two chord versions are so off I felt obligated to register
an account and at least try to give people something in the 'right key'.

I've posted this under TAB, it is actually Chords with finger picking. I hope you
find this info. helpful. Listening to the song while playing should hopeful make
this fairly accurate.

Good Luck
YD

All Out Of Love
By: Air Supply
(Graham Russell, Clive Davis)

Tuning: E-A-D-G-B-E


Barre Chords: C / G / F then F / G / C

Intro:

C G F F G

e-------------------------3-------|--------1-------------------------|
B---------5-----------------3-----|----------1-----------------------|
G-----5-----5-----------------4---|------------2--------2---------4--|
D---5---------5-------5-----------|-----3-------------3--------5-----|
A-3-----------------5-------------|---3-------------3--------5-------|
E-----------------3---------------|-1-------------1--------3---------|

REPEAT
#----------------------------------PLEASE NOTE--------------------------------#
#This file is the author's own work and represents their interpretation of the#
#song. You may only use this file for private study, scholarship, or research.#
#-----------------------------------------------------------------------------#
From: dAviD lI

Air Supply - All Out Of Love


Intro (x2) :
C G F C
|-----------------|------------------|------------------|-------------
|-3---------------|-2----------------|-1----------------|-3------2----
|---2-----------2-|---0-----------0--|---3-----------3--|---2------0--
|-----0-------0---|-----0-------0----|-----3-------3----|------0-----0
|-----------1-----|-----------0------|-----------2------|-------------
|--------0--------|--------3---------|--------1---------|-------------
{_________________} - Repeat this part 2 times after the Intro.


C
I am Lying alone
G
With my head on the phone
Am F
Thinking of you til it hurts
C
I know you hurt too
G
But what else can we do
Am F
Tormented and torn apart
C
I wish I could carry
G
Your smile in my heart
Am F
For times when my life seem so low
C
It would make me believe
G
What tomorrow could bring
Am F Bm A
When today doesn't really know - doesn't really know


Chorus:
D
I am all out of love
A
I am so lost without you
Bm
I know you were right
G
Believing for so long
D
I am all out of love
A
What am I without you
Bm
I can't be too late
G A D

To say that I was so wrong
I want you to come back
And carry me home
Away from these long lonely nights
I'm reaching for you
Are you feeling it too
Does the feeling seem all so right

And what would you say
If I call out you now
Saying I can't hold on
There's no easy way
It gets harder each day
Please love me or I'll be gone, I'll be gone

(Chorus)

C
Ohh...
G Am F C
What are you thinking of What are you thinking of x 2

(Chorus) x 4

=============================================================
Transcribe by : David LI( dada@2-cool.com ) - DADA
Homepage : http://pages.intnet.mu/dada
From Mauritius.
Have Fun!!!
=============================================================