Air — All I Need

Artist: Air
Title: All I Need
Album: Moon Safari
Year: 1998
Words and Music: Air
Transcribed By: Stephen Shodimu
Email: youandyoureidolon@yahoo.co.uk

Intro (Standard chords with occasional extra bits)
--------------------------------------------------

Csus2 | Gm |
A#sus2 | Csus2
e------3----------3-------------3----------3---------1--------------3-----
b-----------3-------------------------------------------------------------
g--5----------5-----5---------------3-----------3------3------5-------5---
D----5----------5-----------5---------5-----------3-------------5---------
A---------------------3-------5---------5----------------1--------3-----3-
E-------------------------------------------------------------------------

Gm | Cm |
Gm
e------3------------3------------3----------3------------3---------3------
b-------------3----------------------------------------------3------------
g--------3------3-----3------5-------5--------5----------------3----------
D--5--------------5------------5-------5-------------5-----------5--------
A----5-----5------------5----------------3------3------5------------------
E-------------------------------------------------------------------------

A#sus2 | Csus2
e------1--------------3-----
b---------------------------
g-3------3------5-------5---
D---3-------------5---------
A----------1--------3-----3-
E---------------------------

Verse and chorus structure
--------------------------

Gm | Csus2 | Gm
e------3-----------3----------3--------5--------3--------3--
b----------3---------------------3-----------------3--------
g-------------3-----------5--------5-----------------3------
D--5------------5-----------5--------5------5----------5----
A----5----------------------------------------5-------------
E-----------------------------------------------------------

A#sus2 | Csus2
e------1--------------3-----
b---------------------------
g-3------3------5-------5---
D---3-------------5---------
A----------1--------3-----3-
E---------------------------

Verse 1:
--------

[Gm]All I need ... time[Csus2],
To get behind ... my [A#sus2]weight, [Csus2]
[Gm]All I need ... this [Csus2]mind,
Then I can [Gm]celebr[A#sus2]ate, [Csus2]
[Gm]All in all ... to [Csus2]give,
[Gm]All in all ... to [A#sus2]do [Csus2],
[Gm]All in all ... to [Csus2]live,
With [Gm]you [Csus2]...
With [Gm]you [Csus2]... (The bass implies a [D#] and
[F] open chords,
but the guitar keeps playing
underneath)

Chorus:
-------

Fly A{Gm]way [A#sus2] [Csus2]
Fly A{Gm]way [A#sus2] [Csus2]
Fly A{Gm]way [A#sus2] [Csus2]
[D] [F]

Verse 2:
--------

All I need ...
To get behind ...
All I need ... to [Csus2]find,
And there I'll [Gm]celebr[A#sus2]ate. [Csus2]
[Gm]All in all ... to [Csus2]give,
[Gm]All in all ... to [A#sus2]do [Csus2],
[Gm]All in all ... to [Csus2]live,
With [Gm]you [Csus2]...
With [Gm]you [Csus2]... (The bass implies a [D#] and
[F] open chords,
but the guitar keeps playing
underneath)

Chorus:
-------

Fly A{Gm]way [A#sus2] [Csus2]
Fly A{Gm]way [A#sus2] [Csus2]
Fly A{Gm]way [A#sus2] [Csus2]
[D] [F]

Instrumental:
-------------
?????????????

Pre-Outro:
----------
[Csus2]
[Gm] [A#sus2] [Csus2]

Outro:
------

[Gm] [Csus2]
[Gm] [A#sus2] [Csus2]