Air — High School Lovers

This song is from 'Virgin suicides' soundtrack, and this is my
transcription of the main melody. (it's played on keyboards, and
I transcribed it for a guitar) Enjoy!

Standard tuning.

-------------------------------------------------------|
--12-10-12-14-10------12-10-12-14----------------------|
-----------------11---------------13-11----------------|
-------------------------------------------------------|
-------------------------------------------------------|
-------------------------------------------------------|

-------------------------------------------------------|
--12-10-12--14---12-10-12--14---12-10-12-14~-----------|
---------------------------------------------11--------|
-------------------------------------------------------|
-------------------------------------------------------|
-------------------------------------------------------|

If you have any comments, e-mail me at wrecker@softhome.net