Air — Kelly Watch The Stars

For the intro I had to use drop C, this doesn't sound much like Air as I know
them but an octave higher on the intro just sounds wrong. Obviously it's still
the same notes - just higher - so you can play it like that if you want. I
reckon he's using a five-string, which I haven't got and it's only the intro
that uses the fifth string anyway.

Check at the bottom for the order of play.

/ = Slide up
= Slide down
= Slide down slowly
r = Let the note ring


Intro

G:------------------------------- G:--------------------------------
D:------------------------------- D:--------------------------------
A:------------------------------- or A:--7--7-5--7-7/107--7--7-5--
E:------------------------------- E:--------------------------------
C:--4--4-2--4-4/74--4--4-2--

G:--------------------------
D:--------------------------
A:--0--3-5--7--11-11--12--
E:--------------------------


Main Riff

G:-----------------------------------------------------
D:-----------------------------------------------------
A:-2--2--5-5--5--------------2--2--5-5--5--------------
E:--------------5--5--3-5--3--------------5--5--3-5--3-

G:-----------------------------------------------------
D:-----------------------------------------------------
A:-2--2--5-5--5--------------2--2--5-5--5--------------
E:--------------5--5--5-5--3--------------5--5--3-5--3-

G:----------------------------
D:----------------------------
A:----------------------------
E:-5--5--3-5--3-5--5--5-3-5-6-


Main Riff, Version 2 (same notes, different way to play it)
(I prefer version 1 myself)

G:-----------------------------------------------------
D:-----------------------------------------------------
A:-------5-5--5--------------------5-5--5--------------
E:-7--7---------5--5--3-5--3-7--7---------5--5--3-5--3-

G:-----------------------------------------------------
D:-----------------------------------------------------
A:-------5-5--5--------------------5-5--5--------------
E:-7--7---------5--5--3-5--3-7--7---------5--5--3-5--3-

G:----------------------------
D:----------------------------
A:----------------------------
E:-5--5--3-5--3-5--5--5-3-5-6-



Main Riff with Extension 1 (this is the same as the normal riff but at
the end it repeats...

G:--------------
D:--------------
A:--------------
E:-5--5--3-5--3-

...nine times before going to...

G:---------------
D:---------------
A:---------------
E:-5--5--5-3-5-6-

...then it goes straight into the Main Riff with Extension 2).



Main Riff with extension 2 (this is the same as Main Riff with Extension 1
except at the end it repeats...

G:--------------
D:--------------
A:--------------
E:-5--5--3-5--3-

...only twice and doesn't go to...

G:---------------
D:---------------
A:---------------
E:-5--5--5-3-5-6-

...at all.



Pause then Main Riff playout

G:-----------------------------------------------------
D:-----------------------------------------------------
A:---------------------------2--2--5-5--5--------------
E:----------------------------------------5--5--3-5--3-

G:-----------------------------------------------------
D:-----------------------------------------------------
A:-2--2--5-5--5--------------2--2--5-5--5--------------
E:--------------5--5--5-5--3--------------5--5--3-5--3-

G:----------------------------
D:----------------------------
A:----------------------------
E:-5--5--3-5--3-5r------------



Intro x1
Main Riff x4
Main Riff with extension 1 x1
Main Riff with extension 2 x1
Break
Main Riff x1
Pause then Main Riff playout x1