Air — Talisman

На этой странице Вы можете ознакомиться с 2 версиями подбора аккордов для гитары к песне "Talisman" группы (исполнителя) "Air".

Song Title: Talisman
Artist: Air
Bass Tab: jar0d@mediaone.net
-------------------------------------------------------------------


/ =slide
P =pull off
H =hammer on


G|------------------------------------------------------|
D|------------------------------------------------------|
A|--0---2--3---7---5-5--3h5--5---0h3h5-0---7--5--3h5----|
E|------------------------------------------------------|



Since there is only one other Air song in the archive I thought I'd give a
rough attempt at tabbing my favorite. It's probably in the wrong key and I
know there are a bunch of other parts to it but it's definitely better
than nothing, eh?


layta
-jar0d
Standard Tuning

Riff 1

G:--------------------------------------------------------
D:------------5h7-----------5h7-5h7---5--7---5-5--8-7-57--
A:--77--7--7-----55--035-5-----------7--7---7-------------
E:--------------------------------------------------------


Bridge 1

G:--------------------------------------
D:--------------------------------------
A:--77-------77-------77-------77-------
E:------567------567------567------567--


Riff 2

G:--------------------------------------------------------
D:--------------------------------------------------------
A:--77-------------------------------------0233--3-22-55--
E:-----567--7-6-55--0h3-0h5--5-3-00--0233-----------------


Bridge 2

G:---------------------------------------------
D:---------------------------------------------
A:----------5h7--------5h7---------5h7---------
E:--00--0-0----00--0-0-----00--0-0----00--0-0--


Riff 1 x2
Bridge 1 x1
Riff 2 x2
Bridge 2 x1
Riff 1 x4
Bridge 1 x1
Riff 2 x2
Bridge 2 x1