Alexisonfire — 44 Calliber Love Letter

На этой странице Вы можете ознакомиться с 2 версиями подбора аккордов для гитары к песне "44 Calliber Love Letter" группы (исполнителя) "Alexisonfire".

44. Caliber Love Letter
by Alexisonfire


A5/D x 5 7 9 x x
G/B x x 9 0 12 x


Intro
Gtr I
T T T T T T T T
|--------------------------|--------------------------|
|-------8-(8)--(8)-----12--|-------8-(8)--(8)-----12--|
|-5-(5)------------5s9-----|-5-(5)------------5s9-----|
|--------------------------|--------------------------|
|--------------------------|--------------------------|
|--------------------------|--------------------------|


T T T T T T T T
|--------------------------|--------------------------|
|-------8-(8)--(8)-----12--|-------8-(8)--(8)-----12--|
|-5-(5)------------5s9-----|-5-(5)------------5s9-----|
|--------------------------|--------------------------|
|--------------------------|--------------------------|
|--------------------------|--------------------------|


Gtr I
T T T T T T T T
|-----------------------------------|-------------------------------------|
|---------8-(8)----(8)-----12-------|---------8-(8)------(8)--------12----|
|--5-(5)---------------5s9----------|--5-(5)-----------------5s==9--------|
|-----------------------------------|-------------------------------------|
|-----------------------------------|-------------------------------------|
|-----------------------------------|-------------------------------------|
|
| Gtr II
|-17--------------------------------|-------------------------------------|
|------------------15---------15h17-|--------13-----(13)-------(13)-------|
|--------16-----17------------------|-16-------------------------------16-|
|-----------------------------------|-------------------------------------|
|-----------------------------------|-------------------------------------|
|-----------------------------------|-------------------------------------|


T T T T T T T T
|-----------------------------------|---------------------------------------|
|---------8-(8)----(8)-----12-------|---------8-(8)------(8)--------12------|
|--5-(5)---------------5s9----------|--5-(5)-----------------5s==9----------|
|-----------------------------------|---------------------------------------|
|-----------------------------------|---------------------------------------|
|-----------------------------------|---------------------------------------|
|
|-17--------------------------------|---------------------------------------|
|------------------15---------15h17-|--------13-----(13)-------(13)---------|
|--------16-----17------------------|-16-------------------------------16---|
|-----------------------------------|---------------------------------------|
|-----------------------------------|---------------------------------------|
|-----------------------------------|---------------------------------------|


T T T T T T T T
|-----------------------------------|-------------------------------------|
|---------8-(8)----(8)-----12-------|---------8-(8)------(8)--------12----|
|--5-(5)---------------5s9----------|--5-(5)-----------------5s==9--------|
|-----------------------------------|-------------------------------------|
|-----------------------------------|-------------------------------------|
|-----------------------------------|-------------------------------------|
|
|-17--------------------------------|-------------------------------------|
|------------------15---------15h17-|--------13-----(13)-------(13)-------|
|--------16-----17------------------|-16-------------------------------16-|
|-----------------------------------|-------------------------------------|
|-----------------------------------|-------------------------------------|
|-----------------------------------|-------------------------------------|


T T T T T T T T
|-----------------------------------|---------------------------------------|
|---------8-(8)----(8)-----12-------|---------8-(8)------(8)--------12------|
|--5-(5)---------------5s9----------|--5-(5)-----------------5s==9----------|
|-----------------------------------|---------------------------------------|
|-----------------------------------|---------------------------------------|
|-----------------------------------|---------------------------------------|
|
|-17--------------------------------|---------------------------------------|
|------------------15---------15h17-|--------13-----(13)-------(13)---------|
|--------16-----17------------------|-16-------------------------------16---|
|-----------------------------------|---------------------------------------|
|-----------------------------------|---------------------------------------|
|-----------------------------------|---------------------------------------|


T T T T T T T T
|---------------------------------|---------------------------------|
|---------8-(8)------(8)------12--|---------8-(8)------(8)------12--|
|--5-(5)-----------------5s=9-----|--5-(5)-----------------5s=9-----|
|---------------------------------|---------------------------------|
|---------------------------------|---------------------------------|
|---------------------------------|---------------------------------|
|
|---------------------------------|---------------------------------|
|--------13-----(13)-------15-----|--------13-----(13)-------15-----|
|-16-----------------16h17--------|-16-----------------16h17--------|
|---------------------------------|---------------------------------|
|---------------------------------|---------------------------------|
|---------------------------------|---------------------------------|


T T T T T T T T
|---------------------------------|----------------------------------|
|---------8-(8)------(8)------12--|---------8-(8)------(8)------12---|
|--5-(5)-----------------5s=9-----|--5-(5)-----------------5s=9------|
|---------------------------------|----------------------------------|
|---------------------------------|----------------------------------|
|---------------------------------|----------------------------------|
|
|---------------------------------|----------------------------------|
|--------13-----(13)-------15-----|--------13-----(13)-------15------|
|-16-----------------16h17--------|-16-----------------16h17---------|
|---------------------------------|----------------------------------|
|---------------------------------|----------------------------------|
|---------------------------------|----------------------------------|


T T T T T T T T
|-----------------------------------|---------------------------------------|
|---------8-(8)----(8)-----12-------|---------8-(8)------(8)--------12------|
|--5-(5)---------------5s9----------|--5-(5)-----------------5s==9----------|
|-----------------------------------|---------------------------------------|
|-----------------------------------|---------------------------------------|
|-----------------------------------|---------------------------------------|
|
|-17--------------------------------|---------------------------------------|
|------------------15---------15h17-|--------13-----(13)-------(13)----(13)-|
|--------16-----17------------------|-16------------------------------------|
|-----------------------------------|---------------------------------------|
|-----------------------------------|---------------------------------------|
|-----------------------------------|---------------------------------------|


T T T T T T T T
|---------------------------|----------------------------------|
|--------8-(8)--(8)-----12--|----------8-(8)--(8)-----12-------|
|--5-(5)------------5s9-----|---5--(5)------------5s9----------|
|---------------------------|----------------------------------|
|---------------------------|----------------------------------|
|---------------------------|----------------------------------|
|
| PM|
|---------------------------|----------------------------------|
|---------------------------|----------------------------------|
|-16------------------------|-(16)-----------------------------|
|---------------------------|----------------------------------|
|---------------------------|----------------------------------|
|---------------------------|----------------------------0-0---|


Q=95
N.C.(A5)
T T T T T T T T
|-------------------------------|-------------------------------|
|---------8-(8)--(8)-----12-----|---------8-(8)--(8)-----12-----|
|-5---(5)------------5s9--------|-5---(5)------------5s9--------|
|-------------------------------|-------------------------------|
|-------------------------------|-------------------------------|
|-------------------------------|-------------------------------|
|
| PM-------------------------------------------------------------
|-------------------------------|-------------------------------|
|-------------------------------|-------------------------------|
|-------------------------------|-------------------------------|
|-------------------------------|-------------------------------|
|-7-7--7--7---------------------|-7-7--7--7---------------------|
|-5-5--5--5-----------------0-0-|-5-5--5--5-----------------0-0-|


T T T T T T T T
|-------------------------------|------------------------------------||
|---------8-(8)--(8)-----12-----|---------8-(8)----(8)-----12--------||
|-5---(5)------------5s9--------|-5---(5)--------------5s9-----------||
|-------------------------------|------------------------------------||
|-------------------------------|------------------------------------||
|-------------------------------|------------------------------------||
|
|-----------------------------------------| PM|
|-------------------------------|------------------------------------||
|-------------------------------|------------------------------------||
|-------------------------------|---------------12-------------------||
|-------------------------------|----------------5-------------------||
|-7-7--7--7---------------------|-7-7--7--7--------------------------||
|-5-5--5--5-----------------0-0-|-5-5--5--5-------------------0-0----||


.
A5 N.C.
Gtr I
|-------8---7----(7)--------------------|
|---------------------------------------|
|-5----------------------------7S===9---|
|---------------------------------------|
|---------------------------------------|
|---------------------------------------|
|
| Gtr III
| PM----| PM---
|----------17-17------------------------|
|-----------------------------15--------|
|----------------16--16-17-17----17-----|
|---------------------------------------|
|-7-7-7-7-------------------------------|
|-5-5-5-5---------------------------0-0-|


A5 N.C.
|-------8---7----(7)-------------------------||
|--------------------------------------------||
|-5----------------------------7S=======9----||
|--------------------------------------------||
|--------------------------------------------||
|--------------------------------------------||
|
|-------|
|----------17-17-----------------------------||
|--------------------------15-15h17p15-------||
|----------------16--16-17-------------17-16-||
|--------------------------------------------||
|-7-7-7-7------------------------------------||
|-5-5-5-5------------------------------------||


A5 N.C.
|-------8---7----(7)--------------------|
|---------------------------------------|
|-5----------------------------7S===9---|
|---------------------------------------|
|---------------------------------------|
|---------------------------------------|
|
| PM----| PM---
|----------17-17------------------------|
|-----------------------------15--------|
|----------------16--16-17-17----17-----|
|---------------------------------------|
|-7-7-7-7-------------------------------|
|-5-5-5-5---------------------------0-0-|


A5 N.C.
|-------8---7----(7)-------------------------||
|--------------------------------------------||
|-5----------------------------7S=======9----||
|--------------------------------------------||
|--------------------------------------------||
|--------------------------------------------||
|
|-------|
|----------17-17-----------------------------||
|--------------------------15-15h17p15-------||
|----------------16--16-17-------------17-16-||
|--------------------------------------------||
|-7-7-7-7------------------------------------||
|-5-5-5-5------------------------------------||


.
A5 N.C.
|--------------------------------------------|
|---------------12----------------13p12-12---|
|------9p7-------------------9p=7------------|
|-10-------9h10----------10------------------|
|--------------------------------------------|
|--------------------------------------------|
|
| PM----| PM---
|---------------17-17------------------------|
|---------------------------------15---------|
|---------------------16-16-17-17----17------|
|--------------------------------------------|
|--7-7-7-7-----------------------------------|
|--5-5-5-5-------------------------------0-0-|


A5 N.C.
|-------------------------------------------------|
|---------------12----------------13p===12-12-----|
|------9p7-------------------9p=7-----------------|
|-10-------9h10----------10-----------------------|
|-------------------------------------------------|
|-------------------------------------------------|
|
|--------|
|---------------17-17-----------------------------|
|------------------------------15-15h17p15--------|
|---------------------16-16-17-------------17-16--|
|-------------------------------------------------|
|--7-7-7-7----------------------------------------|
|--5-5-5-5----------------------------------------|


A5 N.C.
|--------------------------------------------|
|---------------12----------------13p12-12---|
|------9p7-------------------9p=7------------|
|-10-------9h10----------10------------------|
|--------------------------------------------|
|--------------------------------------------|
|
| PM----| PM---
|---------------17-17------------------------|
|---------------------------------15---------|
|---------------------16-16-17-17----17------|
|--------------------------------------------|
|--7-7-7-7-----------------------------------|
|--5-5-5-5-------------------------------0-0-|


A5 N.C.
|---------------------------------------------||
|---------------12----------------------------||
|------9p7------------------------------------||
|-10-------10p9-------------------------10----||
|---------------------------------------------||
|---------------------------------------------||
|
|--------|
|-------------5S15-15-15-15-15-15-15-15-15-15-||
|---------------------------------------------||
|---------------------------------------------||
|---------------------------------------------||
|--7-7-7-7------------------------------------||
|--5-5-5-5------------------------------------||


.
E5 N.C.
T T T T T T T T
||-----------------------------------------------------|
||o----------------------------------------------------|
||-----------------------------------------------------|
||--17p14-17p14-17p10-17p===10-17p10-17p10-17p10-17p10-|
||o----------------------------------------------------|
||-----------------------------------------------------|
|
||-----------------------------------------------------|
||o-------------------15h17p15----------------13----13-|
||---9--9--9--9----------------17-17-17-16-16----16----|
||---9--9--9--9----------------------------------------|
||o--7--7--7--7----------------------------------------|
||-----------------------------------------------------|


E5 N.C.
T T T T T T T T
4x
|------------------------------------------------------||
|-----------------------------------------------------o||
|------------------------------------------------------||
|-17p14-17p14-17p14-17p===14-17p14-17p14-17p14-17p14---||
|-----------------------------------------------------o||
|------------------------------------------------------||
|
| 4x
|------------------------------------------------------||
|-------------------15h17p15----------------13----13--o||
|--9--9--9--9----------------17-17-17-16-16----16------||
|--9--9--9--9------------------------------------------||
|--7--7--7--7-----------------------------------------o||
|------------------------------------------------------||


.
Q=H.=H Q=100
A5 N.C. A5
Gtr I
|-------------------------------|-------------|------------|
|-------------------------------|-------------|------------|
|-------------------------------|-------------|------------|
|-7-7-7-7-----------------------|---------7---|-(7)--------|
|-7-7-7-7-----------------------|---------7---|-(7)--------|
|-5-5-5-5-----------------------|---------5---|-(5)--------|
|
| Gtr II
|-------------------------------|-------------|------------|
|-------------------------------|-------------|------------|
|----------9p7---------7-9-(9)--|-(9)---------|-(9)--------|
|-7-7-7-7------10-9-10----------|-------------|------------|
|-7-7-7-7-----------------------|-------------|------------|
|-5-5-5-5-----------------------|-------------|------------|


|-------------------------|-----------------------------------||
|-------------------------|-----------------------------------||
|-------------------------|-----------------------------------||
|-(7)---------------------|--(7)------------------------------||
|-(7)---------------------|--(7)------------------------------||
|-(5)---------------------|--(5)----/12---------/2-----------||
|
|-------------------------|-------------------------20-20-19--||
|-------------13-12-(12)--|-(12)----(12)-(12)-17-17-----------||
|--9----------------------|-----------------------------------||
|-----0S12-14-------------|-----------------------------------||
|-------------------------|-----------------------------------||
|-------------------------|-----------------------------------||


Screaming Verse
Moderately Fast Rock Q=108
A5 F5
|---------------------------|-------------------------------|
|---------------------------|-------------------------------|
|---------------------------|-------------------------------|
|-7-7-7-7-7-7-7-7-7-7-7-7-7-|-3-3-3-----3-3-3-3-3-3-3-3-3-3-|
|-7-7-7-7-7-7-7-7-7-7-7-7-7-|-3-3-3-----3-3-3-3-3-3-3-3-3-3-|
|-5-5-5-5-5-5-5-5-5-5-5-5-5-|-1-1-1-----1-1-1-1-1-1-1-1-1-1-|
|
| Gtr II
|---------------------------|-------------------------------|
|---------------------------|-----------------------------0-|
|---------------------------|-----------------------5-------|
|-7-7-7-7-7-7-7-7-7-7-------|-x-x-x-----x-x-x-x---x-x---x---|
|-7-7-7-7-7-7-7-7-7-7-------|-3-3-3-(3)-3-3-3-3---3-3---3---|
|-5-5-5-5-5-5-5-5-5-5-------|-------------------------------|
|
| Gtr III
|---------------------------|-------------------------------|
|-------------------8-------|--------6------5---------------|
|---------------------------|-------------------------------|
|---------------------------|-------------------------------|
|---------------------------|-------------------------------|
|---------------------------|-------------------------------|


D5
|-----------------------------------|-----------------------------------|
|-----------------------------------|-----------------------------------|
|--7-7-7-7-7-7-7-7--7-7-7-7-7-7-7-7-|--7-7-7-7-7-7-7-7--7-7-7-7-7-7-7-7-|
|--7-7-7-7-7-7-7-7--7-7-7-7-7-7-7-7-|--7-7-7-7-7-7-7-7--7-7-7-7-7-7-7-7-|
|--5-5-5-5-5-5-5-5--5-5-5-5-5-5-5-5-|--5-5-5-5-5-5-5-5--5-5-5-5-5-5-5-5-|
|-----------------------------------|-----------------------------------|
|
|-----------------------------------|-----------------------------------|
|--1S==3S==5-5-5-5--5-5-5-5-5-5-5-5-|--1S==3S==5-5-5-5--5-5-5-5-5-5-5-5-|
|--2S==4S==7-7-7-7--7-7-7-7-7-7-7-7-|--2S==4S==7-7-7-7--7-7-7-7-7-7-7-7-|
|-----------------------------------|-----------------------------------|
|-----------------------------------|-----------------------------------|
|-----------------------------------|-----------------------------------|
|
|-10-----7---------10---8---7---8---|-10-----7---------10---8---7---8---|
|-----------------------------------|-----------------------------------|
|-----------------------------------|-----------------------------------|
|-----------------------------------|-----------------------------------|
|-----------------------------------|-----------------------------------|
|-----------------------------------|-----------------------------------|


A5 F5
|-----------------------------|---------------------------|
|-----------------------------|---------------------------|
|-----------------------------|---------------------------|
|-7-7-7---7-7-7-7-7-7-7-7-7-7-|-3-3-3-3-3-3-3-3-3-3-3-3-3-|
|-7-7-7---7-7-7-7-7-7-7-7-7-7-|-3-3-3-3-3-3-3-3-3-3-3-3-3-|
|-5-5-5---5-5-5-5-5-5-5-5-5-5-|-1-1-1-1-1-1-1-1-1-1-1-1-1-|
|
|-----------------------------|---------------------------|
|-----------------------------|---------------------------|
|-----------------------------|---------------------------|
|-7-7-7-7-7-7-7-7-7-7-7---7-7-|-3-3-3-3-3-3-3-3-3-3-3-3-3-|
|-7-7-7-7-7-7-7-7-7-7-7---7-7-|-3-3-3-3-3-3-3-3-3-3-3-3-3-|
|-5-5-5-5-5-5-5-5-5-5-5---5-5-|-1-1-1-1-1-1-1-1-1-1-1-1-1-|


N.C.
|---------------------------------------------------|
|---------------------------------------------------|
|-4-4-4-4-4-4-4-4-4-4-4-4-4-4-4-4-4-4--4--4-4-4-4-4-|
|---------------------------------------------------|
|---------------------------------------------------|
|---------------------------------------------------|
|
|-------------------------8-----7-----(7)-----------|
|-1S====3S====5-------------------------------------|
|---------------------------------------------------|
|---------------------------------------------------|
|---------------------------------------------------|
|---------------------------------------------------|


|-----------------------------------------------------------|
|-----------------------------------------------------------|
|-5-5-5-5-5-5--5-5-5--5-5-5-----4-4-4--4-4-4---4--4-4-4-4-4-|
|-----------------------------------------------------------|
|-----------------------------------------------------------|
|-----------------------------------------------------------|
|
|------------------------------20-----19-----(19)-----------|
|-1S====3S====15h====17p====15------------------------------|
|-----------------------------------------------------------|
|-----------------------------------------------------------|
|-----------------------------------------------------------|
|-----------------------------------------------------------|


A5 F5
|---------------------------|----------------------------|
|---------------------------|----------------------------|
|---------------------------|----------------------------|
|-7-7-7-7-7-7-7-7-7-7-7-7-7-|-3-3-3-3-3-3-3-3-3-3-3-3-3--|
|-7-7-7-7-7-7-7-7-7-7-7-7-7-|-3-3-3-3-3-3-3-3-3-3-3-3-3--|
|-5-5-5-5-5-5-5-5-5-5-5-5-5-|-1-1-1-1-1-1-1-1-1-1-1-1-1--|
|
|---------------------------|----------------------------|
|---------------------------|----------------------------|
|---------------------------|----------------------------|
|-7-7-7-7-7-7-7-7-7-7---7-7-|-3-3-3-3-3-3-3-3-3-3-3-3-3--|
|-7-7-7-7-7-7-7-7-7-7---7-7-|-3-3-3-3-3-3-3-3-3-3-3-3-3--|
|-5-5-5-5-5-5-5-5-5-5---5-5-|-1-1-1-1-1-1-1-1-1-1-1-1-1--|


D5 A5/D
|---------------------------------|---------------------------------|
|---------------------------------|---------------------------------|
|-7-7-7-7-7-7-7-7-7-7-7-7-9-9-9-9-|-9-9-9-9-9-9-9-9-9-9-9-9-9-9-9-9-|
|-7-7-7-7-7-7-7-7-7-7-7-7-7-7-7-7-|-7-7-7-7-7-7-7-7-7-7-7-7-7-7-7-7-|
|-5-5-5-5-5-5-5-5-5-5-5-5-5-5-5-5-|-5-5-5-5-5-5-5-5-5-5-5-5-5-5-5-5-|
|---------------------------------|---------------------------------|
|
|---------------------------------|---------------------------------|
|---------------------------------|---------------------------------|
|-7-7-7-7-7---7-7-7-7-7---7-7-7-7-|-7-7-7-7-7---7-7-7-7-7---7-7-7-7-|
|-7-7-7-7-7---7-7-7-7-7---7-7-7-7-|-7-7-7-7-7---7-7-7-7-7---7-7-7-7-|
|-5-5-5-5-5---5-5-5-5-5---5-5-5-5-|-5-5-5-5-5---5-5-5-5-5---5-5-5-5-|
|---------------------------------|---------------------------------|
|
| Gtr III
|-----------------8---7-----------|-----------------8---7-----------|
|---------------------------------|---------------------------------|
|---------------------------------|---------------------------------|
|---------------------------------|---------------------------------|
|---------------------------------|---------------------------------|
|---------------------------------|---------------------------------|


A5 F5
|---------------------------|----------------------------|
|---------------------------|----------------------------|
|---------------------------|----------------------------|
|-7-7-7-7-7-7-7-7-7-7-7-7-7-|-3-3-3-3-3-3-3-3-3-3-3-3-3--|
|-7-7-7-7-7-7-7-7-7-7-7-7-7-|-3-3-3-3-3-3-3-3-3-3-3-3-3--|
|-5-5-5-5-5-5-5-5-5-5-5-5-5-|-1-1-1-1-1-1-1-1-1-1-1-1-1--|
|
|---------------------------|----------------------------|
|---------------------------|----------------------------|
|---------------------------|----------------------------|
|-7-7-7-7-7-7-7-7-7-7---7-7-|-3-3-3-3-3-3-3-3-3-3-3-3-3--|
|-7-7-7-7-7-7-7-7-7-7---7-7-|-3-3-3-3-3-3-3-3-3-3-3-3-3--|
|-5-5-5-5-5-5-5-5-5-5---5-5-|-1-1-1-1-1-1-1-1-1-1-1-1-1--|


D5 A5/D
|---------------------------------|---------------------------------|
|---------------------------------|---------------------------------|
|-7-7-7-7-7-7-7-7-7-7-7-7-7-7-7-7-|-9-9-9-9-9-9-9-9-9-9-9-9-9-9-9-9-|
|-7-7-7-7-7-7-7-7-7-7-7-7-7-7-7-7-|-7-7-7-7-7-7-7-7-7-7-7-7-7-7-7-7-|
|-5-5-5-5-5-5-5-5-5-5-5-5-5-5-5-5-|-5-5-5-5-5-5-5-5-5-5-5-5-5-5-5-5-|
|---------------------------------|---------------------------------|
|
|---------------------------------|---------------------------------|
|---------------------------------|---------------------------------|
|-7-7-7-7-7---7-7-7-7-7---7-7-7-7-|-7-7-7-7-7---7-7-7-7-7---7-7-7-7-|
|-7-7-7-7-7---7-7-7-7-7---7-7-7-7-|-7-7-7-7-7---7-7-7-7-7---7-7-7-7-|
|-5-5-5-5-5---5-5-5-5-5---5-5-5-5-|-5-5-5-5-5---5-5-5-5-5---5-5-5-5-|
|---------------------------------|---------------------------------|
|
| Gtr III
|-----------------8---7-----------|-----------------8---7-----------|
|---------------------------------|---------------------------------|
|---------------------------------|---------------------------------|
|---------------------------------|---------------------------------|
|---------------------------------|---------------------------------|
|---------------------------------|---------------------------------|


A5 F5
|---------------------------|----------------------------|
|---------------------------|----------------------------|
|---------------------------|----------------------------|
|-7-7-7-7-7-7-7-7-7-7-7-7-7-|-3-3-3-3-3-3-3-3-3-3-3-3-3--|
|-7-7-7-7-7-7-7-7-7-7-7-7-7-|-3-3-3-3-3-3-3-3-3-3-3-3-3--|
|-5-5-5-5-5-5-5-5-5-5-5-5-5-|-1-1-1-1-1-1-1-1-1-1-1-1-1--|
|
|---------------------------|----------------------------|
|---------------------------|----------------------------|
|---------------------------|----------------------------|
|-7-7-7-7-7-7-7-7-7-7---7-7-|-3-3-3-3-3-3-3-3-3-3-3-3-3--|
|-7-7-7-7-7-7-7-7-7-7---7-7-|-3-3-3-3-3-3-3-3-3-3-3-3-3--|
|-5-5-5-5-5-5-5-5-5-5---5-5-|-1-1-1-1-1-1-1-1-1-1-1-1-1--|


D5 A5/D D5
|---------------------------------|---------------------------------||
|---------------------------------|---------------------------------||
|-7-7-7-7-7-7-7-7-7-7-7-7-7-7-7-7-|-9-9-9-9-9-9-9-9-7-7-7-7-7-7-7-7-||
|-7-7-7-7-7-7-7-7-7-7-7-7-7-7-7-7-|-7-7-7-7-7-7-7-7-7-7-7-7-7-7-7-7-||
|-5-5-5-5-5-5-5-5-5-5-5-5-5-5-5-5-|-5-5-5-5-5-5-5-5-5-5-5-5-5-5-5-5-||
|---------------------------------|---------------------------------||
|
|---------------------------------|---------------------------------||
|---------------------------------|---------------------------------||
|-7-7-7-7-7---7-7-7-7-7---7-7-7-7-|-7-7-7-7-7---7-7-7-7-7---7-7-7-7-||
|-7-7-7-7-7---7-7-7-7-7---7-7-7-7-|-7-7-7-7-7---7-7-7-7-7---7-7-7-7-||
|-5-5-5-5-5---5-5-5-5-5---5-5-5-5-|-5-5-5-5-5---5-5-5-5-5---5-5-5-5-||
|---------------------------------|---------------------------------||


Bridge
E5
Gtr I
PM| PM| PM| PM|
|-----------------3p0h3--|-----------------3p0h3--|
|-----------0h1h3--------|-----------0h1h3--------|
|------------------------|------------------------|
|------------------------|------------------------|
|-2-2--2-2---------------|-2-2--2-2---------------|
|-0-0--0-0---------------|-0-0--0-0---------------|
|
| Gtr III
|---------------------0--|---------------------0--|
|-----------0h1h3p1p0----|-----------0h1h3p1p0----|
|------------------------|------------------------|
|------------------------|------------------------|
|------------------------|------------------------|
|------------------------|------------------------|


PM| PM| PM| PM|
|-----------------3p0h3--|-----------------3p0h3----|
|-----------0h1h3--------|-----------0h1h3----------|
|------------------------|--------------------------|
|------------------------|--------------------------|
|-2-2--2-2---------------|-2-2--2-2-----------------|
|-0-0--0-0---------------|-0-0--0-0-----------------|
|
|---------------------0--|---------------------0----|
|-----------0h1h3p1p0----|-----------0h1h3p1p0------|
|------------------------|--------------------------|
|------------------------|--------------------------|
|------------------------|--------------------------|
|------------------------|--------------------------|


E5 B G E5 BN.C. G
PM| PM| PM| PM|
|------------------3p0h3--|------------------3p0h3--|
|------------0h1h3--------|------------0h1h3--------|
|-------------------------|-------------------------|
|-------------------------|-------------------------|
|-2-2--2-2----------------|-2-2--2-2----------------|
|-0-0--0-0----------------|-0-0--0-0----------------|
|
|-------------------------|-------------------------|
|-----------12S========8--|-----------12S========8--|
|-------------------------|-------------------------|
|------------9S========5--|------------9S========5--|
|-------------------------|-------------------------|
|-------------------------|-------------------------|


E5 B G E5 B G
PM| PM| PM| PM|
|------------------3p0h3--|--------------------3p=0h=3----------|
|------------0h1h3--------|------------0h1h=3-------------------|
|-------------------------|-------------------------------------|
|-------------------------|-------------------------------------|
|-2-2--2-2----------------|-2-2--2-2----------------------------|
|-0-0--0-0----------------|-0-0--0-0----------------------------|
|
|-------------------------|-------------------------------------|
|-----------12S========8--|-----------12---12-12-12-12-12S8-8---|
|-------------------------|------------x----x--x--x--x--x-x-x---|
|------------9S========5--|------------9----9--9--9--9--9S5-5---|
|-------------------------|-------------------------------------|
|-------------------------|-------------------------------------|


Chrous
E5 B D
PM PM------------------|
|----------------------------------|
|----------------------------------|
|----------------------------------|
|-2---2----------------------------|
|-2-2-2-2---2--2--2--2--2--2--2--2-|
|-0-0-0-0---0--0--0--0--0--0--0--0-|
|
| PM PM
|----------------------------------|
|----------12-12-12-12S15-15-15-15-|
|-----------x--x--x--x--x--x--x--x-|
|---2---2---9--9--9--9S12-12-12-12-|
|-2-2-2-2--------------------------|
|-0-0-0-0--------------------------|


E5 B D E5 B D
PM PM------------------| PM PM------------------|
|----------------------------------|----------------------------------|
|----------------------------------|----------------------------------|
|----------------------------------|----------------------------------|
|-2---2----------------------------|-2---2----------------------------|
|-2-2-2-2---2--2--2--2--2--2--2--2-|-2-2-2-2---2--2--2--2--2--2--2--2-|
|-0-0-0-0---0--0--0--0--0--0--0--0-|-0-0-0-0---0--0--0--0--0--0--0--0-|
|
| PM PM PM PM
|----------------------------------|----------------------------------|
|----------12-12-12-12S15-15-15-15-|----------12-12-12-12S15-15-15-15-|
|-----------x--x--x--x--x--x--x--x-|-----------x--x--x--x--x--x--x--x-|
|---2---2---9--9--9--9S12-12-12-12-|---2---2---9--9--9--9S12-12-12-12-|
|-2-2-2-2--------------------------|-2-2-2-2--------------------------|
|-0-0-0-0--------------------------|-0-0-0-0--------------------------|


E5 B D
PM PM----------------------
|----------------------------------|
|----------------------------------|
|----------------------------------|
|-2---2----------------------------|
|-2-2-2-2---2--2--2--2--2--2--2--2-|
|-0-0-0-0---0--0--0--0--0--0--0--0-|
|
| PM PM
|----------------------------------|
|----------12-12-12-12S15-15-15-15-|
|-----------x--x--x--x--x--x--x--x-|
|---2---2---9--9--9--9S12-12-12-12-|
|-2-2-2-2--------------------------|
|-0-0-0-0--------------------------|


Em
----------------|
|----------------------------------|---0---------||
|----------------------------------|---0---------||
|--------------------------0-0-0-0-|---0---------||
|------------------2-2-2-2-2-2-2-2-|---2---------||
|--2-2-2-2-2-2-2-2-2-2-2-2-2-2-2-2-|---2---------||
|--0-0-0-0-0-0-0-0-0-0-0-0-0-0-0-0-|---0---------||
|
|----------------------------------|-------------||
|-15-------------------------------|-(15)--------||
|----------------------------------|-------------||
|-12-------------------------------|-(12)--------||
|----------------------------------|-------------||
|----------------------------------|-------------||


Screaming Verse
A5 F5
|---------------------------|-----------------------------|
|---------------------------|-----------------------------|
|---------------------------|-----------------------------|
|-7-7-7-7-7-7-7-7-7-7-7-7-7-|-3-3-3---3-3-3-3-3-3-3-3-3-3-|
|-7-7-7-7-7-7-7-7-7-7-7-7-7-|-3-3-3---3-3-3-3-3-3-3-3-3-3-|
|-5-5-5-5-5-5-5-5-5-5-5-5-5-|-1-1-1---1-1-1-1-1-1-1-1-1-1-|
|
|---------------------------|-----------------------------|
|---------------------------|-----------------------------|
|---------------------------|-----------------------------|
|-7-7-7-7-7-7-7-7---7---7-7-|-3-3-3-3-3-3-3-3-3---3---3-3-|
|-7-7-7-7-7-7-7-7---7---7-7-|-3-3-3-3-3-3-3-3-3---3---3-3-|
|-5-5-5-5-5-5-5-5---5---5-5-|-1-1-1-1-1-1-1-1-1---1---1-1-|


D A5/D E F E
|-------------------------------|-----------------------------------|
|-------------------------------|-----------------------------------|
|-7-7-7---9-9---9-9-9-9-5h7-9---|-9-9-9---9-9-9S10---10-10S9---9-9--|
|-7-7-7---7-7---7-7-7-7-----x---|-x-x-x---x-x-x--x----x--x-x---x-x--|
|-5-5-5---5-5---5-5-5-5-----7---|-7-7-7---7-7-7S=8----8--8S7---7-7--|
|-------------------------------|-----------------------------------|
|
|-------------------------------|-----------------------------------|
|-------------------------------|-----------------------------------|
|-7-7-7-9---9-9-7-7-7-7-7-7-7-7-|-7-7-7-7-7-7-7--7-7--7--7-7-7-7-7--|
|-7-7-7-7---7-7-7-7-7-7-7-7-7-7-|-7-7-7-7-7-7-7--7-7--7--7-7-7-7-7--|
|-5-5-5-5---5-5-5-5-5-5-5-5-5-5-|-5-5-5-5-5-5-5--5-5--5--5-5-5-5-5--|
|-------------------------------|-----------------------------------|
|
| Gtr III
|---------------8---7-----------|-------8---7-----------------------|
|-------------------------------|-----------------------------------|
|-------------------------------|-----------------------------------|
|-------------------------------|-----------------------------------|
|-------------------------------|-----------------------------------|
|-------------------------------|-----------------------------------|


A5 F5
|---------------------------|-----------------------------|
|---------------------------|-----------------------------|
|---------------------------|-----------------------------|
|-7-7-7-7-7-7-7-7-7-7-7-7-7-|-3-3-3---3-3-3-3-3-3-3-3-3-3-|
|-7-7-7-7-7-7-7-7-7-7-7-7-7-|-3-3-3---3-3-3-3-3-3-3-3-3-3-|
|-5-5-5-5-5-5-5-5-5-5-5-5-5-|-1-1-1---1-1-1-1-1-1-1-1-1-1-|
|
|---------------------------|-----------------------------|
|---------------------------|-----------------------------|
|---------------------------|-----------------------------|
|-7-7-7-7-7-7-7-7---7---7-7-|-3-3-3-3-3-3-3-3-3---3---3-3-|
|-7-7-7-7-7-7-7-7---7---7-7-|-3-3-3-3-3-3-3-3-3---3---3-3-|
|-5-5-5-5-5-5-5-5---5---5-5-|-1-1-1-1-1-1-1-1-1---1---1-1-|


D5 D E F E
|-------------------------------|-----------------------------------|
|-------------------------------|-----------------------------------|
|-7-7-7---7-7---7-7-7-7-7-7-7---|-9-9-9---9-9-9S10---10-10S9---9-9--|
|-7-7-7---7-7---7-7-7-7-7-7-x---|-x-x-x---x-x-x--x----x--x-x---x-x--|
|-5-5-5---5-5---5-5-5-5-5-5-5---|-7-7-7---7-7-7S=8----8--8S7---7-7--|
|-------------------------------|-----------------------------------|
|
|-------------------------------|-----------------------------------|
|-------------------------------|-----------------------------------|
|-7-7-7-7---7-7-7-7-7-7-7-7-7-7-|-7-7-7-7---7-7--7-7--7--7-7-7-7-7--|
|-7-7-7-7---7-7-7-7-7-7-7-7-7-7-|-7-7-7-7---7-7--7-7--7--7-7-7-7-7--|
|-5-5-5-5---5-5-5-5-5-5-5-5-5-5-|-5-5-5-5---5-5--5-5--5--5-5-5-5-5--|
|-------------------------------|-----------------------------------|
|
| Gtr III
|---------------8---7-----------|----------------8----7-------------|
|-------------------------------|-----------------------------------|
|-------------------------------|-----------------------------------|
|-------------------------------|-----------------------------------|
|-------------------------------|-----------------------------------|
|-------------------------------|-----------------------------------|


A5 F
|---------------------------|----------------------------|
|---------------------------|----------------------------|
|---------------------------|----------------------------|
|-7-7-7-7-7-7-7-7-7-7-7-7-7-|-3-3-3-3-3-3-3-3-3-3-3-3-3--|
|-7-7-7-7-7-7-7-7-7-7-7-7-7-|-3-3-3-3-3-3-3-3-3-3-3-3-3--|
|-5-5-5-5-5-5-5-5-5-5-5-5-5-|-1-1-1-1-1-1-1-1-1-1-1-1-1--|
|
|---------------------------|----------------------------|
|---------------------------|----------------------------|
|---------------------------|----------------------------|
|-7-7-7-7-7-7-7-7---7---7-7-|-3-3-3-3-3-3-3-3---3---3-3--|
|-7-7-7-7-7-7-7-7---7---7-7-|-3-3-3-3-3-3-3-3---3---3-3--|
|-5-5-5-5-5-5-5-5---5---5-5-|-1-1-1-1-1-1-1-1---1---1-1--|


D5
Gtr IV
TP
|-----------------------------------|------------------------------------|
|-----------------------------------|------------------------------------|
|--7-7-7-7-7-7-7-7--7-7-7-7-7-7-7-7-|--7-7-7-7-7-7-7-7--7-7-7---x-------|
|--7-7-7-7-7-7-7-7--7-7-7-7-7-7-7-7-|--7-7-7-7-7-7-7-7--7-7-7---x-------|
|--5-5-5-5-5-5-5-5--5-5-5-5-5-5-5-5-|--5-5-5-5-5-5-5-5--5-5-5---x-------|
|-----------------------------------|------------------------------------|
|
|-----------------------------------|------------------------------------|
|-----------------------------------|------------------------------------|
|--7-7-7-7-7-7-7-7--7-7-7-7-7-7-7-7-|--7-7-7-7-7-7-7-7--7-7-7-7-7--7-7-7-|
|--7-7-7-7-7-7-7-7--7-7-7-7-7-7-7-7-|--7-7-7-7-7-7-7-7--7-7-7-7-7--7-7-7-|
|--5-5-5-5-5-5-5-5--5-5-5-5-5-5-5-5-|--5-5-5-5-5-5-5-5--5-5-5-5-5--5-5-5-|
|-----------------------------------|------------------------------------|
|
| Gtr III
|-10-----7---------10---8---7---8---|-10-----7---------10---8------------|
|-----------------------------------|------------------------------------|
|-----------------------------------|------------------------------------|
|-----------------------------------|------------------------------------|
|-----------------------------------|------------------------------------|
|-----------------------------------|------------------------------------|


A5
Gtr I
|-------------------------------------------------|
|-------------------------------------------------|
|-------------------------------------------------|
|--7-----7-----7-----7-----7-----7-----7-----7----|
|--7-----7-----7-----7-----7-----7-----7-----7----|
|--5--0--5--0--5--0--5--0--5--0--5--0--5--0--5--0-|
|
|-------20-20-19-19-------------20-20-19-19-------|
|-17-17-------------17-17-17-17-------------17-17-|
|-------------------------------------------------|
|-------------------------------------------------|
|-------------------------------------------------|
|-------------------------------------------------|


F5
|-------------------------------------------------|
|-------------------------------------------------|
|-------------------------------------------------|
|--3-----3-----3-----3-----3-----3-----3-----3----|
|--3-----3-----3-----3-----3-----3-----3-----3----|
|--1--0--1--0--1--0--1--0--1--0--1--0--1--0--1--0-|
|
|-------20-20-19-19-------------20-20-19-19-------|
|-17-17-------------17-17-17-17-------------17-17-|
|-------------------------------------------------|
|-------------------------------------------------|
|-------------------------------------------------|
|-------------------------------------------------|


D5
|--------------------------------|----------------------------|
|--------------------------------|----------------------------|
|-7-7-7-7-7----7-7-7-7-7--7--7-7-|-7-7-7-7-7--7-7-7-7-7-7-7-7-|
|-7-7-7-7-7----7-7-7-7-7--7--7-7-|-7-7-7-7-7--7-7-7-7-7-7-7-7-|
|-5-5-5-5-5----5-5-5-5-5--5--5-5-|-5-5-5-5-5--5-5-5-5-5-5-5-5-|
|--------------------------------|----------------------------|
|
|--------------------------------|----------------------------|
|--------------------------------|----------------------------|
|-7-7-7S====14-----------14-----|-9S========16---------------|
|-7-7-7------x------------x------|----------------------------|
|-5-5-5S====12-----------12-----|-7S========14---------------|
|--------------------------------|----------------------------|
|
| Gtr III
|--------------8---7-------------|------------8---7-----------|
|--------------------------------|----------------------------|
|--------------------------------|----------------------------|
|--------------------------------|----------------------------|
|--------------------------------|----------------------------|
|--------------------------------|----------------------------|


A5
|-------------------------------------------------|
|-------------------------------------------------|
|-------------------------------------------------|
|--7-----7-----7-----7-----7-----7-----7-----7----|
|--7-----7-----7-----7-----7-----7-----7-----7----|
|--5--0--5--0--5--0--5--0--5--0--5--0--5--0--5--0-|
|
|-------20-20-19-19-------------20-20-19-19-------|
|-17-17-------------17-17-17-17-------------17-17-|
|-------------------------------------------------|
|-------------------------------------------------|
|-------------------------------------------------|
|-------------------------------------------------|


F5
|-------------------------------------------------|
|-------------------------------------------------|
|-------------------------------------------------|
|--3-----3-----3-----3-----3-----3-----3-----3----|
|--3-----3-----3-----3-----3-----3-----3-----3----|
|--1--0--1--0--1--0--1--0--1--0--1--0--1--0--1--0-|
|
|-------20-20-19-19-------------20-20-19-19-------|
|-17-17-------------17-17-17-17-------------17-17-|
|-------------------------------------------------|
|-------------------------------------------------|
|-------------------------------------------------|
|-------------------------------------------------|


D5
|---------------------------|----------------------------------||
|---------------------------|----------------------------------||
|-7-------------------------|-14-------------17-------16-------||
|-x-------------------------|--x--------------x--------x-------||
|-5-------------------------|-12-------------15-------14-------||
|---------------------------|----------------------------------||
|
|---------------------------|----------------------------------||
|---------------------------|----------------------------------||
|-7-7-7-7-7-7-7-7-7-7-7-7-7-|--7-7-7-7-7-7-7--7-7-7-7--7-7-7-7-||
|-7-7-7-7-7-7-7-7-7-7-7-7-7-|--7-7-7-7-7-7-7--7-7-7-7--7-7-7-7-||
|-5-5-5-5-5-5-5-5-5-5-5-5-5-|--5-5-5-5-5-5-5--5-5-5-5--5-5-5-5-||
|---------------------------|----------------------------------||


Outro Verse
A5
Gtrs I, II
|---------------------------------|---------------------------------|
|---------------------------------|---------------------------------|
|---------------------------------|---------------------------------|
|-7-7-7-7-7-7-7-7-7-7-7-7-7-7-7-7-|-7-7-7-7-7-7-7-7-7-7-7-7-7-7-7-7-|
|-7-7-7-7-7-7-7-7-7-7-7-7-7-7-7-7-|-7-7-7-7-7-7-7-7-7-7-7-7-7-7-7-7-|
|-5-5-5-5-5-5-5-5-5-5-5-5-5-5-5-5-|-5-5-5-5-5-5-5-5-5-5-5-5-5-5-5-5-|
|
| Gtr III
|---------------------------------|---------------------------------|
|---------------------------------|---------------------------------|
|---------------------------------|---------------------------------|
|---------------------------------|---------7---------------9-------|
|---------------------------------|---------------------------------|
|---------------------------------|---------------------------------|


|------------------------------------|-----------------------------------|
|------------------------------------|-----------------------------------|
|------------------------------------|-----------------------------------|
|--7--7-7-7--7-7-7-7-7-7-7-7-7-7-7-7-|--7--7-7-7-7-7-7-7-7-7-7-7-7-7-7-7-|
|--7--7-7-7--7-7-7-7-7-7-7-7-7-7-7-7-|--7--7-7-7-7-7-7-7-7-7-7-7-7-7-7-7-|
|--5--5-5-5--5-5-5-5-5-5-5-5-5-5-5-5-|--5--5-5-5-5-5-5-5-5-5-5-5-5-5-5-5-|
|
|------------------------------------|-----------------------------------|
|------------------------------------|-----------------------------------|
|------------------------------------|-----------------------------------|
|-(9)-------12---------------9-------|-(9)-------------------------------|
|------------------------------------|-----------------------------------|
|------------------------------------|-----------------------------------|


|---------------------------------|------------------------|
|---------------------------------|------------------------|
|---------------------------------|------------------------|
|-7-7-7-7-7-7-7-7-7-7-7-7-7-7-7-7-|-7-7-7-7-7-7-7-7-(7)----|
|-7-7-7-7-7-7-7-7-7-7-7-7-7-7-7-7-|-7-7-7-7-7-7-7-7-(7)----|
|-5-5-5-5-5-5-5-5-5-5-5-5-5-5-5-5-|-5-5-5-5-5-5-5-5-(5)----|


|-------------------------------------------------|
|-------------------------------------------------|
|-------------------------------------------------|
|-7-----------------7-----------------7-----------|
|-7-----------------7-----------------7-----------|
|-5-----------------5-----------------5-----------|
|
| Gtr III
|-5-5-5-5-5-5-5-5-5S7-7-7-7-7-7-7-7-7S8-8-8-8-8-8-|
|-------------------------------------------------|
|-------------------------------------------------|
|-------------------------------------------------|
|-------------------------------------------------|
|-------------------------------------------------|


|-----------------------------------------------------------------------|
|-----------------------------------------------------------------------|
|-----------------------------------------------------------------------|
|--------7--------------------------7--------------------------7--------|
|--------7--------------------------7--------------------------7--------|
|--------5--------------------------5--------------------------5--------|
|
|-8-8-8-10-10-10-10-10-10-10-10-10-12-12-12-12-12-12-12-12-12S15-15-15--|
|-----------------------------------------------------------------------|
|-----------------------------------------------------------------------|
|-----------------------------------------------------------------------|
|-----------------------------------------------------------------------|
|-----------------------------------------------------------------------|


|-----------------------------------------------------------------------------------------|
|-----------------------------------------------------------------------------------------|
|-----------------------------------------------------------------------------------------|
|--7----7-----7----7-----7----7-----7----7-----7----7-----7----7-----7----7-----7----7----|
|--7----7-----7----7-----7----7-----7----7-----7----7-----7----7-----7----7-----7----7----|
|--5----5-----5----5-----5----5-----5----5-----5----5-----5----5-----5----5-----5----5----|
|
|-15-15---15-15-15---15S17-17---17-17-17---17-17-17---17S19-19---19-19-19---19-19-19---19-|
|-----------------------------------------------------------------------------------------|
|-----------------------------------------------------------------------------------------|
|-----------------------------------------------------------------------------------------|
|-----------------------------------------------------------------------------------------|
|-----------------------------------------------------------------------------------------|


5x
||--20-20---20-20-20---20-20-20---20-20-20---20-20-20---20-20-20---20-20-20---20-20-20---20--||
||o-----------------------------------------------------------------------------------------o||
||-------------------------------------------------------------------------------------------||
||-------------------------------------------------------------------------------------------||
||o-----------------------------------------------------------------------------------------o||
||-------------------------------------------------------------------------------------------||
|
| 5x
||-------------------------------------------------------------------------------------------||
||o-----------------------------------------------------------------------------------------o||
||-------------------------------------------------------------------------------------------||
||---7----7-----7----7-----7----7-----7----7-----7----7-----7----7-----7----7-----7----7-----||
||o--7----7-----7----7-----7----7-----7----7-----7----7-----7----7-----7----7-----7----7----o||
||---5----5-----5----5-----5----5-----5----5-----5----5-----5----5-----5----5-----5----5-----||


|------------------------------------------------------------------------------|
|------------------------------------------------------------------------------|
|------------------------------------------------------------------------------|
|--7----7-----7----7----(7)----------------------------------------------------|
|--7----7-----7----7----(7)----------------------------------------------------|
|--5----5-----5----5----(5)----------------------------------------------------|
|
|-20-20---20-20-20---20-20--20-20-20-20-20-20-20-20-20-20-20-20-20-20-20-20-20-|
|------------------------------------------------------------------------------|
|------------------------------------------------------------------------------|
|------------------------------------------------------------------------------|
|------------------------------------------------------------------------------|
|------------------------------------------------------------------------------|


|---------*|
|---------*|
|---------*|
|--7------*|
|--7------*|
|--5------*|
|
|-20------*|
|---------*|
|---------*|
|---------*|
|---------*|
|---------*|
Band: Alexisonfire
Song: .44 Calliber Love Letter
by: Steve Heller

This is my first tab, i made it due to the lack of alexisonfire tabs out there
and because most of them are brutal. As far as i know, there arn't any mistakes,
however there may be errors when i transcribed the tab.

**Note: To better understand the tabs, switch the volume of your speaker either
ot the LEFT OR THE RIGHT. This will really help you out in seperating the 2
sounds.

Guitar 1 = LEFT
Guitar 2 = RIGHT

Tuning: D# G# C# F# A# d#

INTRO

Guitar 1

Figure [1] at 0:00 to 1:07 (Played 34x)

d# |-------------------|
a# |-------------------|
f# |--------------16---|
c# |-----17---/14------|
g# |--15---------------|
D# |-------------------|

Guitar 1

Figure [2] at 1:07 to 1:16 (Played 4x)

d# |--------------------|
a# |--------------------|
f# |-----17--16---------|
c# |------------12/14---|
g# |--15----------------|
D# |--------------------|

Guitar 1

Figure [3] at 1:16 to 1:26 (Played 3x) This section only is played
the last time (1x)
d# |----------------------------------------| |-------------------|
a# |----------------------------------------| |-------------------|
f# |-------------16------16------17p16------| |-------------16~~--|
c# |-----17----------------------------17---| |-----17------------|
g# |--15----1515----15------15--------------| |--15----1515-------|
D# |----------------------------------------| |-------------------|

Entry Guitar 2

Figure [1] at 0:11 to 0:33 (Played 4x)

d# |--17-----------------------------------|
a# |------------15---15h17-----------------|
f# |-----16--17------------16-17---*(16)---| *play softly
c# |---------------------------------------|
g# |---------------------------------------|
D# |---------------------------------------|

Guitar 2

Figure [2] at 0:33 to 0:44 (Played 4x)

d# |----------------------|
a# |----------------------|
f# |--16--17--16h17--19---|
c# |----------------------|
g# |----------------------|
D# |----------------------|

Guitar 2

Repeat Figure [1] at 0:44 to 0:56 (Played 1x)

d# |--17-----------------------------------|
a# |------------15---15h17-----------------|
f# |-----16--17------------16-17---*(16)---| *sustain note until 0:56
c# |---------------------------------------|
g# |---------------------------------------|
D# |---------------------------------------|

Guitar 2

Figure [3] 0:56 to 1:04

d# |-------------*(/3)---| *only include last time this is played
a# |---------------------|
f# |---------------------|
c# |--2/7—7—7—7----------|
g# |--2/7—7—7—7----------|
D# |--0/5—5—5—5----------|

Guitar 2 at 1:04 to 1:26 (Played 4x)

Figure [4]

d# |------------1717--------------------|
a# |------------------------------------|
f# |-----------------1616—1717—19--17---|
c# |--2/7—7—7—7-------------------------|
g# |--2/7—7—7—7-------------------------|
D# |--0/5—5—5—5-------------------------|

d# |--------------1717----------------------------------|
a# |---------------------------15—17—15---17p15---------|
f# |--------------------16--17------------------17—16---|
c# |--2/7—7—7—7-----------------------------------------|
g# |--2/7—7—7—7-----------------------------------------|
D# |--0/5—5—5—5-----------------------------------------|

The last time you play

d# |----------------/15151515--------|
a# |---------------------------------|
f# |---------------------------------|
c# |--2/7—7—7—7----------------------|
g# |--2/7—7—7—7----------------------|
D# |--0/5—5—5—5----------------------|

Guitar 2

Figure [5] at 1:26 to 1:47 (Played 8x)

d# |----------------------------------------------|
a# |-----------15h17p15----15----15----13----13---|
f# |--------------------17----17----16----16------|
c# |--7—7—7—7-------------------------------------|
g# |--7—7—7—7-------------------------------------|
D# |--5-5-5-5-------------------------------------|

Guitar 2

Figure [6] at 1:47 to 1:55 (Played 1x)

d# |-----------------------------------|
a# |-----------------------------------|
f# |-----------------------------------|
c# |--7—7—7—7--12h14p12--10--9/10/12---|
g# |--7—7—7—7--------------------------|
D# |--5-5-5-5--------------------------|

This one of the best intro's i've ever heard for a song. I'll be comin out
with the rest of the song soon but it aint exactly the easiest to tab.

For any questions, comments or corrections
Email: sheller_sh@yahoo.com