Alexisonfire — Counterparts And Number Them

На этой странице Вы можете ознакомиться с 3 версиями подбора аккордов для гитары к песне "Counterparts And Number Them" группы (исполнителя) "Alexisonfire".

ALEXISONFIRE - COUNTERPARTS AND NUMBER THEM

This tab is just about 100% correct, for timing you have to figure it out yourself..just listen to the song
it's really easy. More ALEXISONFIRE tabs coming soon from me, i've almost got the whole album done for both
guitars and bass.

GUITAR : RHYTHM GUITAR (WADE)
TUNING (HIGHEST TO LOWEST) : D#,A#,F#,C#,G#,D#
SYMBOLS : *=PALM MUTE, x=MUTE, /=SLIDE OFF



INTRO
|---------------------------| |-----------------|
|---------------------------| |-----------------|
|---------------------------|x16 |--9~---11~--12~--|
|------5-----4-----5-----4--| |--x----x----x----|
|--0-7---0-5---0-3---0-5----| |--7~---9~---10~--|
|---------------------------| |-----------------|

VERSE
|-----------------------------------------------|
|-----------------------------------------------|
|--9-9-9-9-9--9-9-9-9-9--9-9-9-9-9--9-9-9-9-9---|x4
|--x-x-x-x-x--x-x-x-x-x--x-x-x-x-x--x-x-x-x-x---|
|--7-7-7-7-7--8-8-8-8-8--x-x-x-x-x--x-x-x-x-x---|
|------------------------8-8-8-8-8--7-7-7-7-7---|
x3
______________________|____________
VERSE CONTINUED | |
|-------------------------------------------| |--3-2-3--3-2-3--3-3-3-3-3-3-3-3--|
|-------------------------------------------| |--0-0-0--0-0-0--0-0-0-0-0-0-0-0--| 4TH TIME
|--5-5-5-5-5-5-5--5-5--5-5-5-5-5-5--5-5-----| |--0-0-0--0-0-0--0-0-0-0-0-0-0-0--|_____|____
|--5-5-5-5-5-5-5--5-5--5-5-5-5-5-5--5-5-2~--| |---------------------------------| |
|--3-3-3-3-3-3-3--3-3--3-3-3-3-3-3--3-3-2~--| |---------------------------------| |
|---------------------------------------0~--| |---------------------------------| |
|
|
VERSE CONTINUED |
|----------------------| |
|----------------------| |
|--5-5-5-5-5-5-5--5-5--|x3 |
|--5-5-5-5-5-5-5--5-5--|____________________________________________________________________|
|--3-3-3-3-3-3-3--3-3--|
|----------------------|

x2
____________________________|________________________________
CHORUS | |
|--------------------------------------------------| |--3-3-3--2-2-2--3-3-3--2-2-2--3-3-3--2-2-2--3-3-3--2-2-2--|
|--------------------------------------------------| |--0-0-0--0-0-0--0-0-0--0-0-0--0-0-0--0-0-0--0-0-0--0-0-0--|
|--------------------------------------------------| |--0-0-0--0-0-0--0-0-0--0-0-0--0-0-0--0-0-0--0-0-0--0-0-0--|
|--2-2-2-2-2-2~--2-2-2-2-2~--2~--2-2-2-2-2-2~--2~--| |----------------------------------------------------------|
|--2-2-2-2-2-2~--2-2-2-2-2~--2~--2-2-2-2-2-2~--2~--| |----------------------------------------------------------|
|--0-0-0-0-0-0~--0-0-0-0-0~--0~--0-0-0-0-0-0~--0~--| |----------------------------------------------------------|
* * * * * * * * * * * * * * * * * * *


BRIDGE
|-------------10-10---7---7-7---7-7---7--| |--7-7-7-7-7--|
|----------------------------------------| |--x-x-x-x-x--|
|--/8-7-7-8-7-------9---9-----9-----9----| |--9-9-9-9-9--|2ND TIME
|----------------------------------------| |-------------|
|----------------------------------------| |-------------|
|----------------------------------------| |-------------|


OUTRO
|-----------------------------------------------------------|
|-----------------------------------------------------------|
|--9/-9/--12-12-12/111111/12-12-12/111111-------------------|x2
|--x/-x/--x--x--x-/x-x-x/-x--x--x-/x-x-x---10/-10/--9/--5/--|
|--7/-7/--10-10-10/9-9-9/-10-10-10/9-9-9---x/--x/---x/--x/--|
|------------------------------------------8/--8/---7/--3/--|


OUTRO CONTINUED
|----------------------------------------------------------------------------------------------------------------------|
|----------------------------------------------------------------------------------------------------------------------|
|----------------------------------------------------------------------------------------------------------------------|
|17-17-17--16-16-16--17-17-17--19-19-19--17-17-17--16-16-16--17-17-17--16-16-16--10-10-10--16-16-16--17-17-17--17-17-17|
|x--x--x---x--x--x---x--x--x---x--x--x---x--x--x---x--x--x---x--x--x---x--x--x---x--x--x---x--x--x---x--x--x---x--x--x-|
|15-15-15--14-14-14--15-15-15--17-17-17--15-15-15--14-14-14--15-15-15--14-14-14--12-12-12--14-14-14--15-15-15--14-14-14|

OUTRO CONTINUED
|---------------------------------------------------------------------------------------------------------------------|
|---------------------------------------------------------------------------------------------------------------------|
|---------------------------------------------------------------------------------------------------------------------|
|-14-14-14--12-12-12--111111-12-12-12--17-17-17--16-16-16--17-17-17--19-19-19--17-17-17--16-16-16--17-17-17--16-16-16-|
|-x--x--x---x--x--x---x-x-x--x--x--x---x--x--x---x--x--x---x--x--x---x--x--x---x--x--x---x--x--x---x--x--x---x--x--x--|
|-12-12-12--10-10-10--9-9-9--10-10-10--15-15-15--14-14-14--15-15-15--17-17-17--15-15-15--14-14-14--15-15-15--14-14-14-|

OUTRO CONTINUED
|----------------------------------------------------|
|----------------------------------------------------|
|----------------------------------------------------|
|--10-10-10--16-16-16--17-17-17--16-16-16--14~--12~--|
|--x--x--x---x--x--x---x--x--x---x--x--x---x~---x~---|
|--12-12-12--14-14-14--15-15-15--14-14-14--12~--10~--|

OUTRO CONTINUED
|-------------------------------|
|-------------------------------|
|---------------------------9/--|
|------5-----4-----5-----4--x/--|
|--0-7---0-5---0-3---0-5----7/--|
|-------------------------------|
tuned down 1 half step
listen for rhythm

intro
e----------------------------|
B----------------------------|
G----------------------------|
D-------5-----4-----2-----4--|
A---0-7---0-5---0-3---0-5----|
E----------------------------|
| |
e----------------------------|
B----------------------------|
G----------------------------|make noise on G and B strings!
D-------9-----7-----5-----7--|
A----------------------------|
E----------------------------|

pre-verse
e---------------------------------------------------------------|
B---------------------------------------------------------------|
G---9------------------11------------------12-------------------|
D---x------------------x-------------------x--------------------|
A---7------------------9-------------------10-------------------|
E---0------------------0-------------------0--------------------|
| |
e---------------------------------------------------------------|
B---------------------------------------------------------------|
G----------------------11------------------12-------------------|
D-----7h9h10---7h9h10--x-------------------x--------------------|
A------------7---------9-------------------10-------------------|
E----------------------0-------------------0--------------------|

verse
e--------------------|
B--------------------|
G--------------------|
D------4-5-7-5-4-----|
A--3-7-----------5---|
E--------------------|
| |
e--------------------|
B--------------------|
G--9-----------------|
D--x-keep strumming--|
A--7-----------------|
E--------------------|

chorus
e---------------------------------------------------------------------------|
B-------------------------------------------0-8p0-7p0-5p0-8p0-7p0-5p0-8p5-5-|
G---5-5-4-5-7p5-5-5-7p5-----------------------------------------------------|
D---x-x-x-x-x-x-x-x-x-x-(x2)------------------------------------------------|
A---3-3-3-3-3-3-3-3-3-3-----------------------------------------------------|
E---------------------------0-let ring--------------------------------------|
| |
e---------------------------------------------------------------------------|
B------------------------------8-7-8----8-7-8-----8-7-8-----8-7-8-----------|
G---5-----------------------------------------------------------------------|
D---5-keep strumming--------------------------------------------------------|
A---3-----------------------------------------------------------------------|
E---------------------------0-----------------------------------------------|

chorus end
e---------------------|
B---------------------|
G--5------------------|
D--x-keep strumming---|
A--3------------------|
E---------------------|
| |
e---------------------|
B---------------------|
G--5------------------|
D--5-keep strumming---|
A--3------------------|
E---------------------|

interlude
e----------------------------------------------------|
B----------------------------------------------------|
G-----------------------------5----------------------|
D--2--------------------------x-keep strumming-------|
A--2-strum that weird rhythm--3----------------------|
E--0-------------------------------------------------|
| |
e----------------------------------------------------|
B-----------------------------8--7--8--7--8--7--8--7-|
G----------------------------------------------------|
D--2-------------------------------------------------|
A--2-strum that weird rhythm-------------------------|
E--0-------------------------------------------------|

bridge (i think the notes are right, but the arpeggios aren't)
e-------0-----------0----------0--------10-0-10----|
B---------0-----------0----------0-----------------|
G---12-------12--11------11--12------12------------|
D--------------------------------------------------|
A--------------------------------------------------|
E--------------------------------------------------|
x2
e--------0---------0------------0------------------------|
B--------------------0-------------0---12-0-12-0-12-0-12-|
G-----11-----11--9------9--11----------------------------|
D--0-------------0------0--0-----------------------------|
A--------------------------------------------------------|
E--------------------------------------------------------|
then...
e--0-0-0-0-0-0-0-0--|
B--3-3-3-3-3-3-3-3--|
G--2-2-2-2-2-2-2-2--|
D--0-0-0-0-0-0-0-0--|
A-------------------|
E-------------------|

outro(both guitars i think)
e--------------------------------------------------------------------------|
B--------------------------------------------------------------------------|
G--9-9-x-x-x-9-9-x-x-x--1211/12-------------------------------------------|
D--9-9-x-x-x-9-9-x-x-x--x--x--x---10-10x-x-x-10-10x-x-x-9-9-x-x-x-9-9-x-x-x|
A--7-7-x-x-x-7-7-x-x-x--109-/10--10-10x-x-x-10-10x-x-x-9-9-x-x-x-9-9-x-x-x|
E---------------------------------8--8-x-x-x-8--8-x-x-x-7-7-x-x-x-7-7-x-x-x|
x2

e---------------------------------------------------------|
B---------------------------------------------------------|
G---------------------------------------------------------|
D--10-10-10-9--9--9--10-10-10-12-12-12--10-10-10-9--9--9--|
A--x--x--x--x--x--x--x--x--x--x--x--x---x--x--x--x--x--x--|
E--8--8--8--7--7--7--8--8--8--10-10-10--8--8--8--7--7--7--|
x2
e---------------------------------------------------------| /
B---------------------------------------------------------| /
G----------------------------------------------missing a--| /
D--10-10-10-9--9--9--7--7--7--5--5--5--7--7--7-few final--| /
A--x--x--x--x--x--x--x--x--x--x--x--x--x--x--x-notes------| /
E--8--8--8--7--7--7--5--5--5--3--3--3--5--5--5------------|/

e--------------------------------------|
B--------------------------------------|
G--------------------------5--7--9-----|
D--7---5-------5-----4-----5--7--9-----|
A--x---x---0-7---0-5---0-3-3--5--7-----|
E--5---3-------------------------------|

finished!
ALEXISONFIRE
Counterparts and Number them (intro)

for the beggining riff, i have two different positions, so pick whatever is
more easy for you. Since this songs riff is very fast, listen to the demo
version where it is slowed down.

#############################################################################
riff 1:

position 1
E---------------------------||
B---------------------------||
G--------------------------o||
D------5-----4-----2-----4-o||
A--0-7---0-5---0-3---0-5----||
E---------------------------||

or

position 2
E----------------------------||
B----------------------------||
G---------------------------o||
D---------------------------o||
A--0-7-10-0-5-9-0-3-7-0-5-9--||
E----------------------------||