Alexisonfire — Little Girls Pointing And Laughing

На этой странице Вы можете ознакомиться с 2 версиями подбора аккордов для гитары к песне "Little Girls Pointing And Laughing" группы (исполнителя) "Alexisonfire".

Tuning= Drop D
Little girls pointing and Laughing
guitar 1 guitar 2 (all slides)
alexisonfire
--5--/---------------------------
--6--/---------------------------
--7--/--9/11/10/15/12/15/11/18---
--7--/---------------------------
-----/--6/-9/-8/13/10/13/-9/16---
-----/---------------------------

--------------------------------------------------------------
-----2h4p2p0-----------------4p2------------------------------
------------1h3-----------1h3---1h3----------1h3--------------
------------------------------------------------4/------------
-8888-----------x4--9999------------x3--9999------------------
-8888---------------9999----------------9999------------------
-8888---------------9999----------------9999------------------
PM... ....

--------------------------------------------------------------
------4p2--------------------4p2------------------------------
---------1h3-1h3----------1h3---1h3----------1h3--------------
-8888------------x4--9999-----------x3--9999-----4/-----------
-8888----------------9999---------------9999------------------
-8888----------------9999---------------9999------------------
PM... ....

---------------------------------(9)----------------(9)-------
------------------------------------(9)---------------(9)-----
---------------------------------------(9)--------------(9)---
-8888-----------8888--------9999-----------x3--9999-------(9)-
-8888-9-8----x3-8888-9-8-11-9999---------------9999-----------
-8888-----11----8888--------9999---------------9999-----------
PM... .... .... ....

--------------------------------------------------------------
--------------------------------------------------------------
------10-10-10------------------------------------------------
-8888-10-10-10------------------------------------------------
-8888-8--8--8--x2---------------------------------------------
-8888---------------------------------------------------------
PM...

For those of you who dont like the harmonics part you can also play it like this...

------14-13--------------14-13--------------------------------
------------14-----------------14-9---------------------------
--------------------------------------------------------------
-9999----------x3--9999---------------------------------------
-9999--------------9999---------------------------------------
-9999--------------9999---------------------------------------
PM... ....

If anyone has coments about my first tab ever email me i really want to know if
I messed up on any parts and if u konw the right way then can u show me how ne way
yah have fun with this, this is an awsome song

Email- stb2020@hotmail.com

P.S. AFI rules
-------------------------------------------------------------------------------
Little Girls Pointing and Laughing - Alexisonfire
-------------------------------------------------------------------------------
Tabbed by: .:special k:.
Email: kristinasung@hotmail.com
Site: eatspecialk.diaryland.com

This is an uncompleted rough draft! This is also the tab for the track off the cd, so for
the pricks that are already cussing at me for getting some notes wrong, well stop wasting
your breath, you're probably listening to a downloaded version, do a favour for a great
band like alexisonfire and put their kids through college, buy their fucking cd!!!

Tuning: Dropped D

(figure out the rhythm yourself, t'is easy!)
e|--------------------------------------------------------------------------|
B|--------------------------------------------------------------------------|
G|-8-8-8-8-6-6/11-11-11-11/10-10-10-10/15-15-15-15-1513/15-15-15-15-15-15--|
D|--------------------------------------------------------------------------|
A|-6-6-6-6-6-6/-9-9--9--9/-8--8--8-8/--13-13-13-13-1311/13-13-13-13-13-13--|
D|--------------------------------------------------------------------------|

e|--------------------------------------------------------------------------|
B|-----------------14-14-14-------------------------------------------------|
G|---11-11-11---------------------------------------------------------------|
D|-----------------11-11-11-------------------------------------------------|
A|---9--9--9----------------------------------------------------------------|
D|--------------------------------------------------------------------------|

e|--------------------------------------------------------------------------|
B|---11-11-11-11-11---------------------------------------------------------|
G|---9--9--9--9--9------------10/116---------------10/116-----------------|
D|---9--9--9--9--9---1111-------------------1111----------------------------|
A|---9--9--9--9--9---1111------8/94--------1111-----8/94------------------|
D|---9--9--9--9--9---1111-------------------1111----------------------------|

e|--------------------------------|
B|--------------------------------|
G|--------------------------------|
D|----99-9-99-----10h13-----------| x4
A|----99-9-99--------------10h13--|
D|----99-9-99---------------------|
pm---------
e|--------------------------------|
B|--------------------------------|
G|--------------------------------|
D|----11-1-11---------------------| x4 (not sure of the riffy part there)
A|----11-1-11---------------------|
D|----11-1-11---------------------|
pm---------
e|--------------------------------|
B|--------------------------------|
G|--------------11-13-------------|
D|----99-9-99-----------11--------| x4
A|----99-9-99---------------------|
D|----99-9-99---------------------|
pm---------
e|------------14-13---------------|
B|------------------14------------|
G|--------------------------------|
D|----11-1-11---------------------| x4 (fourth time, pull off)
A|----11-1-11---------------------|
D|----11-1-11---------------------|
pm---------

That's all I have so far, I attempted to tab this song fully knowing I wasn't gonna do
the whole song. Those palm mutes were way too much fun to pass up. So I tried! I'll try
to figure out the whole song soon...

| / slide up
| slide down
| h hammer-on
| p pull-off
| ~ vibrato
| + harmonic
| x Mute note
===============================================================================