Alexisonfire — Pulmonary Archery

На этой странице Вы можете ознакомиться с 4 версиями подбора аккордов для гитары к песне "Pulmonary Archery" группы (исполнителя) "Alexisonfire".

Pulmonary Archery
by Alexisonfire
Tabbed by Erich Yeung
Standard tuning (EADG)


This song is really easy to play on bass. It's just a repition of two notes basically.
Note that half the intro is done by guitar. and the intro thats tabbed is for the part
where the power chords come in.

Intro
|-------------------|
|-------------------|
|-------------------|
|-1-1-1--let-ring---|

|-------------------|
|-------------------|
|-------------------|
|-4-4-4--let-ring---|

Verse
|---------------------------------|
|---------------------------------|
|-------------------4--4-4-4--4--|
|--1--1-1-1-1--1------------------|

pre-chorus
|--------------|
|--------------|
|--------------|
|-1-1-1---3-4--|

|------------|
|------------|
|-4-4-4-4-4--|
|------------|
Chorus
|--------------------|
|--------------------|
|----------------11--|
|-1-1-1----11-11-----|

or

|-------------------------|
|-------------------------|
|-------------------11-11-|
|-13-13-13----11-11-------|


Bridge
|--------------------------|
|--------------------------|
|--------------------------|x2
|--1-1-1-1-1---7-7-7-7-7---|

(power chord part of bridge)
|----------------|
|----------------|
|----------------|
|-1-1-1-1-1-1-1--|

|----------------|
|----------------|
|----------------|
|-7-7-7-7-7-7-7--


Outro
|-------------------------------------------|
|-------------------------------------------|
|-------------------------------------------|
|--keep-playing--4--until-end-then-let-ring-|


Order of song

Intro-play 2 times
verse-play 4 times
pre-chorus-play 3 times
chorus-play 4 times
verse-4 times
bridge-4 times
verse-3 times
outro-keep playing until end note

this is my third tab and more guitar and bass tabs coming for alexisonfire
PULMONARY ARCHERY
by Alexisonfire

All Guitars tuned Db Ab Db Gb Bb Eb
Intro A
Gtr I
|--------------|------------|--------------|----------------|
|--------------|------------|--------------|----------------|
|-----------9--|-(9)--------|-----------6--|--(6)-7---6-----|
|-------7------|------------|------4-------|-------------4--|
|--9-----------|------------|--5-----------|----------------|
|--------------|------------|--------------|----------------|
|
| Gtr II
|-----------9--|-(9)--------|----------12--|-(12)-----------|
|------10------|------------|------9-------|----------------|
|-11-----------|------------|-11-----------|----------------|
|--------------|------------|--------------|----------------|
|--------------|------------|--------------|----------------|
|--------------|------------|--------------|----------------|


F#m7 Dmaj7
|--------------|--------------|--------------|------------------|
|--------------|---------9----|--------------|------------------|
|-----------9--|-(9)----------|-----------6--|--(6)--7---6--4---|
|-------7------|--------------|------4-------|------------------|
|--9-----------|--------------|--5-----------|------------------|
|--------------|--------------|--------------|------------------|
|
|-----------9--|-(9)----------|----------12--|-(12)s14---9------|
|------10------|--------12----|------9-------|------------------|
|-11-----------|--------------|-11-----------|------------------|
|--------------|--------------|--------------|------------------|
|--------------|--------------|--------------|------------------|
|--------------|--------------|--------------|------------------|


F#m7 Dmaj7
|--------------|------------|--------------|-----------------|
|--------------|------------|--------------|-----------------|
|-----------9--|-(9)--------|-----------6--|--(6)-7---6------|
|-------7------|------------|------4-------|-------------4---|
|--9-----------|------------|--5-----------|-----------------|
|--------------|------------|--------------|-----------------|
|
|-----------9--|-(9)--------|----------12--|-(12)------------|
|------10------|------------|------9-------|-----------------|
|-11-----------|------------|-11-----------|-----------------|
|--------------|------------|--------------|-----------------|
|--------------|------------|--------------|-----------------|
|--------------|------------|--------------|-----------------|


F#m7 Dmaj7
|--------------|-------------|--------------|-----------------|
|--------------|--------9----|--------------|-----------------|
|-----------9--|-(9)---------|-----------6--|--(6)-7---6------|
|-------7------|-------------|------4-------|-------------4---|
|--9-----------|-------------|--5-----------|-----------------|
|--------------|-------------|--------------|-----------------|
|
|-----------9--|-(9)---------|----------12--|-(12)------------|
|------10------|-------------|------9-------|-----------------|
|-11-----------|-------------|-11-----------|-----------------|
|--------------|-------------|--------------|-----------------|
|--------------|-------------|--------------|-----------------|
|--------------|-------------|--------------|-----------------|


Intro B
N.C. Dadd9
|---9----7---/12--|-(12)-9---7--9--|--7----9----5--|--(5)----|
|-----------------|----------------|---------------|---------|
|-----------------|----------------|---------------|---------|
|-----------------|----------------|---------------|---------|
|-----------------|----------------|---------------|---------|
|-----------------|----------------|---------------|---------|
|
|-(12)------------|-(12)-----------|-----------12--|-(12)----|
|-----------------|----------------|------10---10--|-(10)----|
|-----------------|----------------|-11--------11--|-(11)----|
|-----------------|----------------|------------0--|--(0)----|
|-----------------|----------------|------------0--|--(0)----|
|-----------------|----------------|------------0--|--(0)----|


N.C. Dadd9
|---9----7---/12--|-(12)-9---7--9--|--7----9----5--|--(5)----|
|-----------------|----------------|---------------|---------|
|-----------------|----------------|---------------|---------|
|-----------------|----------------|---------------|---------|
|-----------------|----------------|---------------|---------|
|-----------------|----------------|---------------|---------|
|
|-(12)------------|-(12)-----------|-----------12--|-(12)----|
|-(10)------------|-(10)-----------|------10---10--|-(10)----|
|-(11)------------|-(11)-----------|-11--------11--|-(11)----|
|--(0)------------|--(0)-----------|------------0--|--(0)----|
|--(0)------------|--(0)-----------|------------0--|--(0)----|
|--(0)------------|--(0)-----------|------------0--|--(0)----|


Intro C
F#m7 Dmaj7
Gtr III
|--------------|------------|--------------|
|--------------|------------|--------------|
|-----------9--|-(9)--------|-----------6--|
|-------7------|------------|------4-------|
|--9-----------|------------|--5-----------|
|--------------|------------|--------------|
|
| Gtr IV
|-----------9--|-(9)--------|----------12--|
|------10------|------------|------9-------|
|-11-----------|------------|-11-----------|
|--------------|------------|--------------|
|--------------|------------|--------------|
|--------------|------------|--------------|


F#m7
|-------------|------------|-------------|
|-------------|------------|-------------|
|--(6)--------|---------9--|-(9)---------|
|-------------|-----7------|-------------|
|-------------|-9----------|-------------|
|-------------|------------|-------------|
|
|-(12)--------|------------|-------------|
|-------------|------------|-------------|
|-------------|---------6--|-(6)----4----|
|-------------|-----7------|-------------|
|-------------|-9----------|-------------|
|-------------|------------|-------------|


Intro D
Q=200
N.C.
3/4 4/4
|---------|-9-9-9-9-9-9-9-9-9-9-9-9-9-9-9-9-|-9-9-9-9-9-9-9-9-9-9-9-9-|
|---------|---------------------------------|-------------------------|
|---------|---------------------------------|-------------------------|
|-----4---|---------------------------------|-------------------------|
|-5-------|---------------------------------|-------------------------|
|---------|---------------------------------|-------------------------|
|
|---------|---------------------------------|-------------------------|
|---------|---------------------------------|-------------------------|
|---------|---------------------------------|-------------------------|
|-----4---|---------------------------------|-------------------------|
|-5-------|---------------------------------|-------------------------|
|---------|---------------------------------|-------------------------|


|--9--9--9--9--9--9-9--9-|--9-9--9--9--9--9--9--9-|
|------------------------|------------------------|
|------------------------|------------------------|
|------------------------|------------------------|
|------------------------|------------------------|
|------------------------|------------------------|
|
| PM---| PM|
|-------------------9----|----9-------------------|
|----------10---------10-|------10----12-10----12-|
|-11-11-11----11-11------|-11------11-------11----|
|------------------------|------------------------|
|------------------------|------------------------|
|------------------------|------------------------|
|
| Gtr V
|------------------------|------------------------|
|------------------------|------------------------|
|------------------------|------------------------|
|------------------------|------------------------|
|------------------------|------------------------|
|------------------------|------------------------|


|--9-----9--9------9-----9--9-------9----9-|---9---9-9--9--9-9--9-9-|
|------------------------------------------|------------------------|
|------------------------------------------|------------------------|
|------------------------------------------|------------------------|
|------------------------------------------|------------------------|
|------------------------------------------|------------------------|
|
| PM------| PM|
|----------------------------------12------|------12------12--------|
|------------------9---------------------9-|---------9-------9----9-|
|-11----11-11-----------11-11--------------|--11-------11------11---|
|------------------------------------------|------------------------|
|------------------------------------------|------------------------|
|------------------------------------------|------------------------|
|
|--9s12-------(12)-9s12-------(12)--9s12---|-(12)-------------------|
|------------------------------------------|------------------------|
|------------------------------------------|------------------------|
|------------------------------------------|------------------------|
|------------------------------------------|------------------------|
|------------------------------------------|------------------------|


|--9--9--9--9--9---------|-(9)---------------------|
|------------------------|-------------------------|
|------------------------|-------------------------|
|------------------------|-------------------------|
|------------------------|-------------------------|
|------------------------|-------------------------|
|
| PM---| PM|
|-------------------9----|-----9-------------------|
|----------10---------10-|-------10----12-10----12-|
|-11-11-11----11-11------|-11-------11-------11----|
|------------------------|-------------------------|
|------------------------|-------------------------|
|------------------------|-------------------------|


|-(9)--------------------|-(9)--------------------|
|------------------------|------------------------|
|------------------------|------------------------|
|------------------------|------------------------|
|------------------------|------------------------|
|------------------------|------------------------|
|
| PM----| PM|
|-------------------12---|-----12------12---------|
|-----------9----------9-|--------9-------9----9--|
|-11--11-11---11-11------|-11-------11------11----|
|------------------------|------------------------|
|------------------------|------------------------|
|------------------------|------------------------|


Verse A
||---9-9-9--7-7-7-12-12-|-12--9-9-9-7-7-9-9-|
||o---------------------|-------------------|
||----------------------|-------------------|
||----------------------|-------------------|
||o---------------------|-------------------|
||----------------------|-------------------|
|
||-----------------9----|-(9)---------------|
||o--------10-----------|-------------------|
||--11------------------|-------------------|
||----------------------|-------------------|
||o---------------------|-------------------|
||----------------------|-------------------|


|--7-7-7-9-9-9--5-5-|---5--5-5-5-7-7-5-5--||
|-------------------|--------------------o||
|-------------------|---------------------||
|-------------------|---------------------||
|-------------------|--------------------o||
|-------------------|---------------------||
|
|--------------12---|-(12)----------------||
|--------9----------|--------------------o||
|-11----------------|---------------------||
|-------------------|---------------------||
|-------------------|--------------------o||
|-------------------|---------------------||


Verse B
F#5 N.C. D5 N.C.
PM| PM PM PM| PM PM
||------------------|------------------|-----------------|-------------------||
||o-----------------|------------------|-----------------|------------------o||
||----------9-------|-----9---------9--|---------9-------|-----9---------9---||
||------7---------7-|-(7)-------7------|-----7---------7-|-(7)-------7-------||
||o-9-9---------9---|---------9--------|-9-9---------9---|---------9--------o||
||------------------|------------------|-----------------|-------------------||
|
||------------------|------------------|-----------------|-------------------||
||o-----------------|------------------|-----------------|------------------o||
||------------------|------------------|-----------------|--9--9-------------||
||------------------|-------7---7-9-6--|-7-7-7-7-7-7-7-7-|-------6-4-6-7-6---||
||o-4-4-4-4-4-4-4-4-|--4--4------------|-5-5-5-5-5-5-----|------------------o||
||--4-4-4-4-4-4-4-4-|--4--4------------|-----------------|-------------------||


Chorus
F#5 N.F#5 N.C.
||------------------|--------------------|
||o-----------------|-------10---9-------|
||--------------9-9-|-(9)------------9---|
||--------7-7-7-----|--------------------|
||o-9-9-9-----------|--------------------|
||------------------|--------------------|
|
||------------------|--------------------|
||o-----------------|--------------------|
||------------------|--------------------|
||--------6-----7-7-|--7--7--9-9-6-6-4-4-|
||o-4-4-4---4-4-----|--------------------|
||--4-4-4---4-4-----|--------------------|


D5 N.C.
|-----------------|---------------------||
|-----------------|-------10---9-------o||
|-------------9-9-|-(9)------------9----||
|-------7-7-7-----|---------------------||
|-9-9-9-----------|--------------------o||
|-----------------|---------------------||
|
|-----------------|---------------------||
|-----------------|--------------------o||
|-----------------|--9--9---------------||
|-7-7-7-6-6-6-7-7-|--------6-4-6-7-6-4--||
|-5-5-5-----------|--------------------o||
|-----------------|---------------------||


Verse C
F#5 E5 F#5 E5
|------------|---------------|------------|---------------|
|------------|---------------|------------|---------------|
|---------9--|-(9)-----------|---------9--|-(9)-----------|
|-----7------|----------2----|-----7------|----------2----|
|-9----------|-----2-2--2----|-9----------|-----2-2--2----|
|------------|-----2-2--2----|------------|-----2-2--2----|
|
|------------|---------------|------------|---------------|
|------------|---------------|------------|---------------|
|------------|---------------|------------|---------------|
|-4---4---4--|-(4)------2----|-4---4---4--|-(4)------2----|
|-4---4---4--|-(4)-2-2--2----|-4---4---4--|-(4)-2-2--2----|
|-4---4---4--|-(4)-2-2--2----|-4---4---4--|-(4)-2-2--2----|


F#5 E5 F#5
|------------|---------------|------------|--------|
|------------|---------------|------------|--------|
|---------9--|-(9)-----------|---------9--|-(9)----|
|-----7------|----------2----|-----7---7--|-(7)----|
|-9----------|-----2-2--2----|-9-------9--|-(9)----|
|------------|-----2-2--2----|------------|--------|
|
|------------|---------------|------------|--------|
|------------|---------------|------------|--------|
|------------|---------------|------------|--------|
|-4---4---4--|-(4)------2----|-4---4---4--|--------|
|-4---4---4--|-(4)-2-2--2----|-4---4---4--|--------|
|-4---4---4--|-(4)-2-2--2----|-4---4---4--|--------|


Verse D
F#m7 D5
PM| PM| PM PM
3x
||------------------|-------------------|-----------------|-----------------||
||o-----------------|-------------------|-----------------|----------------o||
||------9-----------|-(9)---------------|-----------------|-----------------||
||------7-----------|-(7)---------------|-----7-----7-----|-7---------------||
||o-9-9-9-----------|-(9)---------------|-0-0-5---0-5---0-|-5--------------o||
||------------------|-------------------|-0-0-----0-----0-|-----------------||
|
| PM| PM| PM| PM| PM|
| 3x
||------------------|-------------------|-----------------|-----------------||
||o-----------------|-------------------|-----------------|----------------o||
||------6-----6-----|--6------6-----6-6-|---------9-9-----|-----------------||
||--4-4-4-4-4-4-4-4-|--4--4-4-4-4-4-4-4-|-4-4-6-6-----4-4-|-6-7-9-7-6-7-6---||
||o-----------------|-------------------|-----------------|----------------o||
||------------------|-------------------|-----------------|-----------------||


F#m7 D5
PM| PM|
|-----------------|-------------------|-----------------|--------------------|
|-----------------|-------------------|-----------------|--------------------|
|-----9-----------|-(9)---------------|-----------------|--------------------|
|-----7-----------|-(7)---------------|-----7-----7-----|-7-----7-------(7)--|
|-9-9-9-----------|-(9)---------------|-0-0-5-----5-----|-5-----5-------(5)--|
|-----------------|-------------------|-0-0-------------|--------------------|
|
|-----------------|-------------------|-----------------|--------------------|
|-----------------|-------------------|-----------------|--------------------|
|-----6-----6-----|--6------6-----6-6-|---------9-9-----|--------------------|
|-4-4-4-4-4-4-4-4-|--4--4-4-4-4-4-4-4-|-4-4-6-6-----4-4-|-6-7-9-7-6-7-6------|
|-----------------|-------------------|-----------------|--------------------|
|-----------------|-------------------|-----------------|--------------------|


Bridge
F#5 E5F#E5 F#E5
Gtrs III, IV
|-------------|------------|-------------|-----|
|-------------|------------|-------------|-----|
|-------------|------------|-------------|-----|
|-------------|------------|-------------|-----|
|-4-4-4-4-----|------2-4-2-|-4-2-2-2-----|-----|
|-4-4-4-4-----|------2-4-2-|-4-2-2-2-----|-----|


F#5 E5F#5 E5F#5 D5
Gtr III
|-------------|-----------|----------|----------------|
|-------------|-----------|----------|----------------|
|-------------|-----------|----------|----------------|
|-------------|-----------|----------|----------------|
|-4-4-2-4-----|------2-4--|-0--------|-(0)------------|
|-4-4-2-4-----|------2-4--|-0--------|-(0)------------|
|
| Gtr IV
|-------------|-----------|----------|----------12----|
|-------------|-----------|----------|------10--------|
|-------------|-----------|----------|-11-------------|
|-------------|-----------|----------|----------------|
|-4-4-2-4-----|------2-4--|-0--------|----------------|
|-4-4-2-4-----|------2-4--|-0--------|----------------|


F#5 E5F#E5 F#E5
Gtrs III, IV
|-------------|------------|-------------|-----|
|-------------|------------|-------------|-----|
|-------------|------------|-------------|-----|
|-------------|------------|-------------|-----|
|-4-4-4-4-----|------2-4-2-|-4-2-2-2-----|-----|
|-4-4-4-4-----|------2-4-2-|-4-2-2-2-----|-----|


F#5 E5F#5 E5 F#5 D5
Gtr III
|-------------|-------------|-----------|---------|
|-------------|-------------|-----------|---------|
|-------------|-------------|-----------|---------|
|-------------|-------------|-----------|---------|
|-4-4-2-4-----|-------2--4--|--0--------|--(0)----|
|-4-4-2-4-----|-------2--4--|--0--------|--(0)----|
|
| Gtr IV
|-------------|-------------|-12--------|-(12)----|
|-------------|---------10--|-----------|---------|
|-------------|------11-----|-----------|---------|
|-------------|-------------|-----------|---------|
|-4-4-2-4-----|-------------|-----------|---------|
|-4-4-2-4-----|-------------|-----------|---------|


Out-Chorus
F#5
||--9-9-9-7-7-7-12-12-|-12--9-9-9-7-7-9-9-|
||o-------------------|-------------------|
||--------------------|-------------------|
||--------------------|-------------------|
||o-------------------|-------------------|
||--------------------|-------------------|
|
| Gtr IV
||--------------------|-------------------|
||o-------------------|-------------------|
||--------------------|-------------------|
||--4-----4---4--4----|-(4)-4-4---4---4---|
||o-4-----4---4--4----|-(4)-4-4---4---4---|
||--4-----4---4--4----|-(4)-4-4---4---4---|


D5
4x
|-7-7-7-9-9-9-5-5-|--5--5-5-5-7-7-5-5--||
|-----------------|-------------------o||
|-----------------|--------------------||
|-----------------|--------------------||
|-----------------|-------------------o||
|-----------------|--------------------||
|
| 4x
|-----------------|--------------------||
|-----------------|-------------------o||
|-7-----7---7-7---|-(7)-7-7---7---7----||
|-7-----7---7-7---|-(7)-7-7---7---7----||
|-5-----5---5-5---|-(5)-5-5---5---5---o||
|-----------------|--------------------||


F#5 D5
|-9-9-7-7-9-9-7-7-|-9-9-7-7-9-9-7-7-|-9s12--(12)-9s12--(12)-9s12-|-(12)----*|
|-----------------|-----------------|----------------------------|---------*|
|-----------------|-----------------|----------------------------|---------*|
|-----------------|-----------------|----------------------------|---------*|
|-----------------|-----------------|----------------------------|---------*|
|-----------------|-----------------|----------------------------|---------*|
|
|-----------------|-----------------|----------------------------|---------*|
|-----------------|-----------------|----------------------------|---------*|
|-----------------|-----------------|-7--------------------------|--(7)----*|
|-4-4-4-4-4-4-4-4-|-4-4-4-4-4-4-4-4-|-7--------------------------|--(7)----*|
|-4-4-4-4-4-4-4-4-|-4-4-4-4-4-4-4-4-|-5--------------------------|--(5)----*|
|-4-4-4-4-4-4-4-4-|-4-4-4-4-4-4-4-4-|----------------------------|---------*|
They're website is: http://www.theonlybandever.com/

d#-----------0-0---(9)----------------------------|
a#------------------------------------------------|
f#------2-2-----------------------6-6-7-7-6--6----| x4
c#-4-4------------------0-0--4-4---------------4--|
g#------------------------------------------------|
d#------------------------------------------------|

guitar 2 (12)(/14) second time only

d#-----------9--------------------12(/14)---------|
a#------10---------(12)------10-------------------|
f#-11-------------------11------------------------| x4
c#------------------------------------------------|
g#------------------------------------------------|
d#------------------------------------------------|

at about 0:30.

guitar 1

d#-9-9--7-7/12--9-9-7-9-7-9---5--------------------|
a#----------------------------7--------------------|
f#-------------------------------------------------| x2
c#-------------------------------------------------|
g#-------------------------------------------------|
d#-------------------------------------------------|

guitar 2

d#----------------------2--4--4--------------------|
a#-------------------------------------------------|
f#-------------------------------------------------| x2
c#-------------------------------------------------|
g#-------------------------------------------------|
d#-------------------------------------------------|

enter loud noise.

guitar 1

(/999) play only second time of two, and play the nine over and over again)

d#---------------------------(/999)-|
a#----------------------------------|
f#---------9---------------7--------| x2
c#-4---7---9-------4---4---7--------|
g#-4---7---7-------4---4---5--------|
d#-2---5-----------2---2------------|

guitar 2

d#----------------------------------|
a#---------5---------------2--------|
f#-2---6---6-------2---2---2--------| x2
c#-4---7-----------4---x---0--------|
g#-----------------5---5------------|
d#----------------------------------|

guitar 2 cont'd... how you play this, i'm not quite sure

d#----------------------------------------------------------------|
a#-------------14------14------12--------------------17----17-----|
f#-------14------14------14------14------------141414--1414--1414-|
c#-161616--1616----1616----1616----161616141414-------------------|
g#----------------------------------------------------------------|
d#---------------------------------------^------------------------|

at the ^ in the above line, guitar 1 starts doing this

d#-9/12-9/12-9/12-9/12-|
a#---------------------|
f#---------------------|
c#---------------------|
g#---------------------|
d#---------------------|

play around with those two bits overlapping until George screams.

LET'S GO!

guitar 1, play this pattern with applicable rhythm... kinda hard to hear

d#--------12-------9---|
a#-----10--------7-----|
f#--11---------7-------|
c#---------------------|
g#---------------------|
d#---------------------|

guitar 2 (9) play first time [10] play second time

d#-/9--9-7--7/12-12--9--9-7--7-9--9--7-7-9-9--------7-(9)--|
a#-------------------------------------------10-10----[10]-|
f#---------------------------------------------------------|
c#---------------------------------------------------------|
g#---------------------------------------------------------|
d#---------------------------------------------------------|

guitar 1

d#-------------------|
a#-------------------|
f#-------------------| x2
c#-44444444-77777777-|
g#-44444444-77777777-|
d#-22222222-55555555-|

guitar 2

d#------------------|
a#------------------|
f#---9-----9----9---| x4 (half the time as guitar 1, they match up)
c#-7-----7----7-----|
g#------------------|
d#------------------|

This is where Dallas starts singing

guitar 1 (5-4-0) last time only

d#---------(5-4-0)-|
a#-----------------|
f#----------4------| x4
c#-4--6--7----6-2--|
g#-----------------|
d#-----------------|

guitar 2 the *s, i'm not quite sure what you do here... what I do is play them and
quickly pulloff and strum again on dampen ( tab noted as an x ) and hammer them both back
down again so they really look like |--5pxh5--| but whatever

the (5-5) play only the first of the two times, or third of the four

d#----------5*--/5-4-0-| |---------(5-5)-5-4-0-|
a#----------5*---------| |---------------------|
f#---------------------| x2 |---------------------| x2
c#-4-4--6-6------------|then|-4-4--6-6------------|
g#---------------------| |---------------------|
d#---------------------| |---------------------|

DUN DUN DUN

guitar 1 (upstrokes)

d#-------| |-----|
a#-------| |-----|
f#-------| x3 |--7--|
c#-4-4-4-|then|--7--|
g#-4-4-4-| |--7--|
d#-2-2-2-| |--5--|

guitar 2... a weird distortion...

d#-------| |--5--|
a#-------| |--7--|
f#-----9-| x3 |-----|
c#-4-7---|then|-----|
g#-------| |-----|
d#-------| |-----|

we're at 1:50

guitar 1 (second time on the first 442 chord play every other time instead of a
stream of strums)

d#--------------------------------------------------------------|
a#--------------------------------------------------------------|
f#------------9------------------6-6-6-6-6-----9----------------| x2
c#-44444444-7----6h7h9p6-6h7p6---4-4-4-4--4--7----6h7h9p6-6h7p6-|
g#-44444444----------------------4-4-4-4------------------------|
d#-22222222-----------------------------------------------------|

guitar 2 (upstroke first chord)

d#--------------------------------------------------------------|
a#--------------------------------------------------------------|
f#-9-------/--9--9---------------6---------9------9-------------| x2
c#-7-------/7----7---------------4-------7--7-----7-------------|
g#---------------7---------------4------------------------------|
d#--------------------------------------------------------------|

F*CK YOU 2:10

this part was tough... so these chords are probably all wrong.

guitar 1

d#------------------------0-----|
a#------------------------0-----|
f#------------------------2-----| x2
c#-4444----4444----4444---2-----|
g#-4444----4444----4444---2-----|
d#-2222----2222----2222---0-----|

guitar 2 (0)(2) second time only

d#--------------------------(12)|
a#-------------------------(10)-|
f#---------2222-----------------| x2
c#-4444----2222----4444---0-----|
g#-4444----0000----4444---5-----|
d#-2222----2222----2222---5-----|

Jesse's drum roll, song picks up pace again

guitar 1

d#-------------------|
a#-------------------|
f#-------------------| x4
c#-44444444-77777777-|
g#-44444444-77777777-|
d#-22222222-55555555-|

guitar 2 (9) 1st 2nd 3rd times, [10] 4th time

d#-/9--9-7--7/12-12--9--9-7--7-9--9--7-7-9-9--------7--(9)-|
a#-------------------------------------------10-10----[10]-|
f#---------------------------------------------------------| x4
c#---------------------------------------------------------|
g#---------------------------------------------------------|
d#---------------------------------------------------------|

outro... sadly the song comes to an end (2:47)

guitar 1

d#-------------------|
a#-------------------|
f#----------7--------|
c#-44444444-7--------|
g#-44444444-5--------|
d#-22222222----------|

guitar 2

d#-9977997799779999-9/12-/12-/12-----|
a#-----------------------------------|
f#-----------------------------------|
c#-----------------------------------|
g#-----------------------------------|
d#-----------------------------------|

degenerative slides...

guitar 1 (# = hitting your pick with the edge against the strings)

d#-------------------------------------------------|
a#-------------------------------------------------|
f#----------------------#-#------#-------|
c#----------------------#-#--------------|
g#----------------------#-#--------------|
d#-------------------------------------------------|

guitar 2

d#-------------------------------------------------|
a#-------------------------------------------------|
f#-------------------------------------------------|
c#-------------------------------------------------|
g#--------1-0-------1-0-------1-0--------|
d#-------------------------------------------------|
Alexisonfire - Pulmonary Archery
Tabbed entirely by: J@ck0

And when I say entirely it's ENTIRELY!!


It's a so cool song. May attention to the space between
numbers. Sometimes that will change all the rytm. It's not my first
tab but this track is tough to tabbed cuz there is two distortion
guitars play lead at the beginning. And humm.. if you find a mistake
in this guitar tab contact me at bretthulln16@hotmail.com
Have Fun!!
J@ck0

Character signification:
b = Bend
r = Release
~ = Vibrato
= Specified Section

Intro:
*******************************************************************
*-----------------------------------------------------------------*
*-----------------------------------------------------------------*
*-----------------------------------------------------------------*
*---3-3-6-6--10--------3-3-10--11-11-10-11p10---------------------*
*------------------4-4--------------------------------------------*
*-----------------------------------------------------------------*
* *
*-----------------------------------------------------------------*
*----------------8------------------------------------------------*
*---3-3-6-6--10---------------------------------------------------*
*----------------------3-3-10--11-11-10-11p10---------------------*
*------------------4-4--------------------------------------------*
*-----------------------------------------------------------------*
* *
*-----------------------------------------------------------------*
*-----------------------------------------------------------------*
*-----------------------------------------------------------------*
*---3-3-6-6--10--------3-3-10--11-11-10-11p10---------------------*
*------------------4-4--------------------------------------------*
*-----------------------------------------------------------------*
* *
*----------------3--3---------------------------------------------*
*-----------------------------------------------------------------*
*---3-3-6-6--10---------------------------------------------------*
*---------------------------3-3-10--11-11-10-11p10----------------*
*-----------------------4-4---------------------------------------*
*-----------------------------------------------------------------*
* *
*-----------------------------------------------------------------*
*---13-13-11-11/16-16-13-13-11-13-11-13--13-----------------------*
*-----------------------------------------------------------------*
*-----------------------------------------------------------------*
*-----------------------------------------------------------------*
*-----------------------------------------------------------------*
* *
*-----------------------------------------------------------------*
*---13-13-11-11/16-16-13-13-11-13-11-13--13-----------------------*
*-----------------------------------------------------------------*
*-----------------------------------------------------------------*
*-----------------------------------------------------------------*
*-----------------------------------------------------------------*
*******************************************************************

--Distortion Open Here--

***************************************************************************
* *
*----------------------------------------------------------------- *
*---1313131313131313---------------------------------------------- *
*----------------------------------------------------------------- *
*----------------------------------------------------------------- *
*----------------------------------------------------------------- *
*----------------------------------------------------------------- *
* *
* At 01:02 the second guitar play this riff: *
*------88-88-88-8---------------------------88-88-88-8--------------------*
*---664--6--6--6------664-99-99-99-9-----664--6--6--6-----664-9~~---------*
*---------------------------8--8--8---------------------------------------*
*-------------------------------------------------------------------------*
*-------------------------------------------------------------------------*
*-------------------------------------------------------------------------*
***************************************************************************

Two guitars play this riff 2 times:
****************************************************************************
*----------------------------------------------------------------- *
*---6-9-13-131313---6-9-13-13-1414-------------------------------- *
*----------------------------------------------------------------- *
*----------------------------------------------------------------- *
*----------------------------------------------------------------- *
*----------------------------------------------------------------- *
****************************************************************************


**********************************************************
*The Guitar player who do the back voice play this part: *
* 2X Muted Distortion & 2X with Distortion: *
* ------------------------------------- *
* ------------------------------------- *
* ------------------------------------- *
* --1010101010101010-1111111111111111-- *
* --1010101010101010-1111111111111111-- *
* --8-8-8-8-8-8-8-8--9-9-9-9-9-9-9-9--- *
* *
*The other guitar plays these riffs: *
* ---------8--8----------8--8---- *
* ---6--9-----------6-9---------- *
* ------------------------------- play 4X *
* ------------------------------- *
* ------------------------------- *
* ------------------------------- *
* *
* -------------8/1-------- *
* ---666-9---9------------ *
* ------------------------ play 4X *
* ------------------------ *
* ------------------------ *
* ------------------------ *
* *
* ------------- *
* ---1616131-- *
* ------------- *
* ------------- *
* ------------- *
* ------------- *
**********************************************************


****************************************************************************
*Back voice Guitar Player: *
*--------------------------------------------------------------------------*
*--------------------------------------------------------------------------*
*---5--8--12--1212-----5--8--12--1212-------5--8--12--1212-------5--8--12~-*
*---5--8--12--1212-----5--8--12--1212-------5--8--12--1212-------5--8--12~-*
*---3--6--10--1010-----3--6--10--1010-------3--6--10--1010-------3--6--10~-*
*--------------------------------------------------------------------------*
*Other guitar: *
* *
*------------------ *
*---6---9---13~~--- *
*------------------ play 4X *
*------------------ *
*------------------ *
*------------------ *
* *
****************************************************************************


*************************************************
*Back Voice Guitar Player: *
*2X Muted Distortion & 2X with Distortion: *
*------------------------------------- *
*------------------------------------- *
*------------------------------------- *
*--1010101010101010-1111111111111111-- *
*--1010101010101010-1111111111111111-- *
*--8-8-8-8-8-8-8-8--9-9-9-9-9-9-9-9--- *
* *
*Other Guitar: *
*------------------------ *
*---------6666--6-9~~---- *
*---5-8------------------ play 4X *
*---5-8------------------ *
*---3-6------------------ *
*------------------------ *
*************************************************

Two Guitars play 2 times:
*************************************************************
*------------------------------------------------ *
*------------------------------------------------ *
*---5/4-5-5-----5/4-5-4------5/4-5-5----55--6~~-- *
*---5/4-5-5-----5/4-5-6------5/4-5-5----55--6~~-- *
*---3/2-3-3-----3/2-3-6------3/2-3-3----33--4~~-- *
*------------------------------------------------ *
*************************************************************

Ending:
*********************************************************
*This is the part of the Back Voice Guitar Player: *
*------------------------------------- *
*------------------------------------- *
*------------------------------------- play 4X *
*--1010101010101010-1111111111111111-- *
*--1010101010101010-1111111111111111-- *
*--8-8-8-8-8-8-8-8--9-9-9-9-9-9-9-9--- *
* *
*---------------------------------------------------- *
*---------------------------------------------------- *
*---666666666666--5--6~~~---------------------------- *
*---666666666666--5--6~~~---------------------------- *
*---444444444444--3--4~~~---------------------------- *
*---------------------------------------------------- *
* *
* *
* *
*And this is the ending of the other guitar: *
*----------------------------------------- *
*---/-13-11-/16--16-16-/-11-13-11-/9--9-9- *
*----------------------------------------- play 4X *
*----------------------------------------- *
*----------------------------------------- *
*----------------------------------------- *
* *
*-------------------------------------------- *
*---/-1616161616161616161616161616b17r16~~~-- *
*-------------------------------------------- *
*-------------------------------------------- *
*-------------------------------------------- *
*-------------------------------------------- *
*********************************************************

The little riff we can hear at the end when the distortion
for the other guitar is holding: (play 3 times)
*************************
*-----------------------*
*-----------------------*
*-----------------------*
*-----7--6----2---------*
*-----------------------*
*-----------------------*
*************************

--Distortion Close Here--




***********************************************************************************
***********************************************************************************
** LYRICS **
***********************************************************************************
***********************************************************************************
** **
** its never too late to be early or to try and maintain some scrap of **
** integrity and certainty…I guess. But I wont apologize and 1977 was a long **
** time ago. I dont care how things were I wont apologize. Fuck you. the Alamo **
** has been penetrated and there is little hope for the white man so hop on **
** your rainbow and ride it into oblivion. For all I care you can be early or **
** late, what ever. **
** **
***********************************************************************************
***********************************************************************************

Alexisonfire Web Site: www.theonlybandever.com