Alexisonfire — Water Wings

На этой странице Вы можете ознакомиться с 3 версиями подбора аккордов для гитары к песне "Water Wings" группы (исполнителя) "Alexisonfire".

Water Wings
by Alexisonfire
tabbed by Erich Yeung
standard tuning (EADG)

I noticed there were no Alexisonfire bass tabs and i was outraged so i decided to post
this one. it's a easy but fun song to play. I tried to get the playing patterns right
the best i could but for the best results, play it to the song.

INTRO
|-------------------------------|
|-------------------------------|
|--666--9-99--------------------|
|------------9-99--9-7-9--------|

Verse
|---------------------------|
|---------------------------|x2
|---------------------------|
|--11-11-11---11--11-11-----|

|----------------------|
|----------------------|
|----------------------|
|--9-9-9-9---9--9-9----|

CHORUS
|--------------------------------------------------------|
|--------------------------------------------------------|
|--6-play-8-times----------------------------------------|
|-------------------7-play-8-times----9-play-14-times----|


feel free to end the measure like this every now and then

|---------------------------------|
|---------------------------------|
|---------------------------------|
|-----9-play-14-times---9-7-9-----|

BRIDGE
|------------|
|------------|
|------------|
|-6-6---7-7--|


OUTRO(SAME AS CHORUS)


ENDING NOTE
|--------------|
|--------------|
|------6-------|
|--------------|
ORDER
INTRO:play 4 times
VERSE:play 4 times
CHORUS:play 5 times
INTRO:play 4 times
BRIDGE:play 4 times
CHORUS/Outro:play 5 times
ending note:play once
tuned down 1 half step
listen for strumming patterns

verse
e-------------------------------|
B-------------------------------|
G---12------14-------11---------| x4
D----x-------x-------0----------|
A---10------12-------9----------|
E-------------------------------|

interlude
e-------------------------------------------------|
B-------------------------------------------------|
G-------------------------------------------------|
D-------5--5----5---5--5--------5--5----5---5--5--|
A-------7--7----7---7--7--------7--7----7---7--7--|
E--0-0--------0---0--------0-0--------0---0-------|

e-------------------------------------------------|
B-------------------------------------------------|
G-------------------------------------------------|
D-------------------------------------------------| x4
A--5r0h10r0h9r0h5r0h12r0h10r0h9h10r9r0--x2--------|
E-------------------------------------------------|

chorus
e----------------------|
B--5----------3--------|
G--4----5-----2--------|
D--2----5-----0--------|
A-------3-----0--------|
E----------------------|

chorus end
e--0-------------------|
B--0-keep strumming----|
G----------------------|
D----------------------|
A----------------------|
E----------------------|

verse x4

bridge

e---------------------------------------------------------------------|
B---------------------------------------------------------------------|
G---------------------------------------------------------------------|
D----------7p5p4p0-7p5p4p0-7p5p4p0------------7p5p4p0-7p5p4p0-7p5p4p0-|
A---------------------------------------------------------------------|
E---------------------------------------------------------------------|
| |x4
e---------------------------------------------------------------------|
B---------------------------------------------------------------------|
G---4---4-----------------------------5---5---------------------------|
D---4---4-----------------------------5---5---------------------------|
A---2---2-----------------------------3---3---------------------------|
E---------------------------------------------------------------------|

e-------------------------|
B--8----------------------|
G-------------------------|
D-------------------------|
A-------------------------|
E-------------------------|
| |
e-------------------------|
B-------------------------|
G--5----------------------|
D--5----------------------|
A--3----------------------|
E-------------------------|

chorus x4

outro
e-------------------------------------------|
B-------------------------------------------|
G--------------------------------------9----|
D--------------------------------------9----|x1
A--5r0h10r0h9r0h5r0h12r0h10r0h9h10r9r0-7----|
E-------------------------------------------|
Alexisonfire - Water Wings
Tabbed entirely by: J@ck0

And when I say entirely it's ENTIRELY!!

This song is cool and easy to play. Just listen the song
and use these chords. Have fun!

-----------------------------------
-----------------------------------
---8------11------10---------------
---8------11------10-----11--------
---6------9-------8------11--------
-------------------------9---------

Or if you prefer this chords:

-----------------------------------
---4------7-------6----------------
---3------6-------5------6---------
---1------4-------3------6---------
-------------------------4---------
-----------------------------------

For the solo you can simply improvise one like that:

-----------------------------------------------
-----------------------------------------------
-----------------------------------------------
-----------------------------------------------
---9-8-6---6-8-9-9-8-6-----6-8-9----9-8-6------
---------9-------------6-9----------------6----


***********************************************************************************
** LYRICS **
***********************************************************************************
** **
** you always had the blondest hair. Chlorine has stripped the pigment from **
** your skin. The cash was worth the fucking change. At the pool from open to **
** close. Rake the bottom for loose change. A job that got him his luxurious **
** house and cars but it probably lead to his divorce. Its probably the reason **
** why his son hates him. Now your blood is so toxic with chlorine that you **
** only have 3 months to live. Was the change worth it? Was the divorce worth **
** it? You will never see your son again. **
** **
***********************************************************************************
Alexisonfire Web Site: www.theonlybandever.com