Alice In Chains — Angry Chair Acoustic

song: angry chair
album: unpluged
tabed by: Michael Peach


This is a pretty simple song. All except for the solo.
One thing that is fun to do is take the acoustic solo
and play it over the recorded version. This tab is 100%
accurate I promise. It is also tuned at a half step.

intro/verse

e--------------------------------------------------
b--------------------------------------------------
g--------------------------------------------------
d--------------------------------------------------
a------2---3b------2---3b------2---3b--------------
E---0---0-------0---0-------0---0------------------

pre-chorus

e---1-1-1-1---0--0---------1-1-1-1---0--0----------
b---1-1-1-1---0--0---------1-1-1-1---0--0----------
g---2-2-2-2---1--1---------2-2-2-2---1--1----------
d---3-3-3-3---2--2---------3-3-3-3---2--2----------
a---3-3-3-3---2--2---------3-3-3-3---2--2----------
E---1-1-1-1---0--0----5b---1-1-1-1---0--0----5b----

chorus

e--------------------------------------------------
b--------------------------------------------------
g---2-2--4-4---------------------------------------
d---2-2--4-4--4-4--5-5-----------------------------
a---0-0--2-2--4-4--5-5-----------------------------
E-------------2-2--3-3-----------------------------

e-------------0------------------------------------
b-------------0------------------------------------
g---2-2--4-4--1------------------------------------
d---2-2--4-4--2------------------------------------
a---0-0--2-2--2------------------------------------
E-------------0---5b--5b--5b-----------------------

solo

e-----------------------/---------------------------
b-----------------------/------8---8---8--10--10b---
g---------------7-9-9-9-/--7h9---9---9--------------
d-------5-7-7/9---------/---------------------------
a---5/7-----------------/---------------------------
E-----------------------/---------------------------

e-----------------------/---------------------------
b---10b-10-8----8-------/---------------------------
g------------9----9-7h9-/--9-x-x-9p7---7------------
d-----------------------/------------9----9-8-7--5--
a-----------------------/---------------------------
E-----------------------/---------------------------

e-----------------------/---------------------------
b-----------------------/---------------------------
g-----------------------/---------------------------
d---7-7b-7b-------------/---------------------------
a------------5h7-7-x-7--/------7----5----5p0--5h7-7-
E-----------------------/--0-0----0----0------------

e-----------------------/---------------------------
b-----------------------/-----7-8-10-10b-10b-10b----
g----------------7-9-9-9/--9------------------------
d----------5-7h9--------/---------------------------
a---7--5h7--------------/---------------------------
E-----------------------/---------------------------

the rest of the solo is over the verse riff

e---10----------------------------------------------
b------10--10-8-7-8-7h8p7----8-7--------------------
g--------------------------9------9-7---------------
d---------------------------------------------------
a---------------------------------------------------
E---------------------------------------------------

e---------------------------------------------------
b---------------------------------------------------
g---9---7-------------------------------------------
d----------9-8-7--5--7--7-7b------------------------
a---------------------------------------------------
E---------------------------------------------------

well thats it. I hope you enjoy it.