Alice In Chains — Bleed The Freak

На этой странице Вы можете ознакомиться с 2 версиями подбора аккордов для гитары к песне "Bleed The Freak" группы (исполнителя) "Alice In Chains".

ALICE IN CHAINS

Song Title: Bleed the Freak
Album: Facelift
Bassist: Michael Starr
Tabbed By: Andy Waugh

Correction

I Forgot to say before, this is in normal key, I know in reality
it's tuned down one half step, so you're gonna have to compensate
for that, sorry. I'll try and do it myself and put it on.

There's a couple of bits I'm not entirely sure about, so if you
have something different then I guess yours maybe right. I didn't
tab the timing cos it's hard to show but you should pick it up
from the CD. Anyway, ENJOY.

INTRO

G-------6-5-5------------6-8-10-8-6-------------------------------
D-------------8p6-------------------8-----------------------------
A-------------------------------------9-11-9----------------------
E---2
#----------------------------------PLEASE NOTE---------------------------------#
#This file is the author's own work and represents their interpretation of the #
#song. You may only use this file for private study, scholarship, or research. #
#------------------------------------------------------------------------------##
From: fitch@eng2.eng.monash.edu.au (TRAVIS FITCH)

B L E E D T H E F R E A K

As recorded by: Alice in Chains
(From the Album: FaceLift / Columbia records)

transcribed by Travis Fitch (fitch@eng2.eng.monash.edu.au)
-----------------------------------------------------------------------------
Tempo = 120
Time Sig = 4/4

Intro
e:--------------------------|--------------------------|
B:--------------------------|--------------------------|
G:--------4--------4-----4--|-----------4--------4-----|
D:-----4--------4-----------|--------4-----4--------4--|
A:--2-----------------0-----|-----2-----------2--------|
E:-----------3--------------|--0-----------------------|


e:--------------------------|-------------------------|
B:--------------------------|-------------------------|
G:--------4--------4-----4--|----------------4-----4--|
D:-----4--------4-----------|-------------------4-----|
A:--2-----------------0-----|--0----------2-----------|
E:-----------3--------------|-----3--0----------------|
| | |
e:--------------------------|-------------------------|
B:--------------------------|-------------------------|
G:--------4--------4--2--4--|-2--0----------4---------|
D:-----4--------4-----------|-------2----------4------|
A:--2-----------------------|------------2--------2---|
E:-----------3--------------|-------------------------|



e:--------------------------|--------------------------|
B:--------------------------|--------------------------|
G:--------4--------4-----4--|-----------4--------4-----|
D:-----4--------4-----------|--------4-----4--------4--|
A:--2-----------------0-----|-----2-----------2--------|
E:-----------3--------------|--0-----------------------|
| | |
e:--------------------------|--------------------------|
B:--------------------------|--------------------------|
G:--------4--------4-----4--|-----------4--------4-----|
D:-----4--------4-----------|--------4-----4--------4--|
A:--2-----------------0-----|-----2-----------2--------|
E:-----------3--------------|--0-----------------------|



e:--------------------------|-------------------------|
B:--------------------------|-------------------------|
G:--------4--------4-----4--|----------------4--------|
D:-----4--------4-----------|-------------------4-----|
A:--2-----------------0-----|--0----------2--------2--|
E:-----------3--------------|-----3--0----------------|
| | |
e:--------------------------|-------------------------|
B:--------------------------|-------------------------|
G:--------4--------4--2--4--|--2--0----------4--------|
D:-----4--------4-----------|--------2----------4-----|
A:--2-----------------------|-------------2--------2--|
E:-----------3--------------|-------------------------|



My cup run-neth o -
e:--------------------------|--------------------------|
B:--------------------------|--------------------------|
G:--------4--------4-----4--|-----------4--------4-----|
D:-----4--------4-----------|--------2-----4--------4--|
A:--2-----------------0-----|-----2-----------2--------|
E:-----------3--------------|--0-----------------------|

ver
e:--------------------------|-------------------------|
B:--------------------------|-------------------------|
G:--------4--------4-----4--|-------------------4-----|
D:-----4--------4-----------|----------------4-----4--|
A:--2-----------------0-----|--0----------2-----------|
E:-----------3--------------|-----3--0----------------|

Like blood from a stone
e:--------------------------|--------------------------|
B:--------------------------|--------------------------|
G:--------4--------4-----4--|-----------4--------4-----|
D:-----4--------4-----------|--------4-----4--------4--|
A:--2-----------------0-----|-----2-----------2--------|
E:-----------3--------------|--0-----------------------|


e:--------------------------|------------------------|
B:--------------------------|------------------------|
G:--------4--------4-----4--|------------------------|
D:-----4--------4-----------|------------------------|
A:--2-----------------0-----|--0---------------------|
E:-----------3--------------|-----3--0---------------|


Chorus
These stand for me
e:---------------------------|---------------------------|
B:---------------------------|---------------------------|
G:--4-------------2---2------|---------------------------|
D:--4------5------2---2---2--|----(2)--------------------|
A:--2------5------0---0---2--|----(2)--------------------|
E:---------3--------------0--|----(0)--------------------|


Name your god and bleed the freak
e:-----------------------|-------------------------|
B:-----------------------|-------------------------|
G:--4-------------2---2--|-------------------------|
D:--4------5------2---2--|------2------------------|
A:--2------5------0---0--|------2------------------|
E:---------3-------------|--3---0------------------|


I like to see
e:---------------------------|--------------------------|
B:---------------------------|--------------------------|
G:--4-------------2---2------|--------------------------|
D:--4------5------2---2---2--|--------------------------|
A:--2------5------0---0---2--|--------------------------|
E:---------3--------------0--|--------------------------|


how you all would bleed for me
e:-----------------------|-------------------------|
B:-----------------------|-------------------------|
G:--4-------------2---2--|-------------------------|
D:--4------5------2---2--|------2------------------|
A:--2------5------0---0--|------2------------------|
E:---------3-------------|--3---0------------------|

When the pig
e:---------------------------||-----------------------------------------|
B:---------------------------||-----------------------------------------|
G:---------------------------||*----------------------------------------|
D:------------------------3/-||*--4---3/---4--------------------------|
A:------------------------1/-||---2---1/---2---3/---4---3----3----3--|
E:---------------------------||------------------1/---2---1----1----1--|

runs slower
e:----------------------------------------|
B:----------------------------------------|
G:----------------------------------------|
D:-------------------------------------3/-|
A:--3----3----3----3----3----3----3----1/-|
E:--1----1----1----1----1----1----1-------|

let the
e:----------------------------------------|
B:----------------------------------------|
G:----------------------------------------|
D:--4---3/---4---------------------------|
A:--2---1/---2----3/---4---3----3----3--|
E:-----------------1/---2---1----1----1--|


arrow fly
e:----------------------------------------|
B:----------------------------------------|
G:----------------------------------------|
D:-------------------------------------3/-|
A:--3----3----3----3----3----3----3----1/-|
E:--1----1----1----1----1----1----1-------|

When the sin
e:----------------------------------------|
B:----------------------------------------|
G:----------------------------------------|
D:--4---3/---4---------------------------|
A:--2---1/---2----3/---4---3----3----3--|
E:-----------------1/---2---1----1----1--|


lies boulder
e:----------------------------------------|
B:----------------------------------------|
G:----------------------------------------|
D:-------------------------------------3/-|
A:--3----3----3----3----3----3----3----1/-|
E:--1----1----1----1----1----1----1-------|

I'll pluck out thine eye
e:----------------------------------------|-------------------------------|
B:----------------------------------------|-------------------------------|
G:----------------------------------------|-------------------------------|
D:--4---3/---4---------------------------|-----------------------7-------|
A:--2---1/---2----3/---4---3----3----3--|--3----3----3----3-----5----7--|
E:-----------------1/---2---1----1----1--|--1----1----1----1----------5--|


These stand for me
e:---------------------------|--------------------------|
B:---------------------------|--------------------------|
G:--4-------------2---2------|--------------------------|
D:--4------5------2---2---2--|--------------------------|
A:--2------5------0---0---2--|--------------------------|
E:---------3--------------0--|--------------------------|

Name your god and bleed the freak
e:-----------------------|-----------------------|
B:-----------------------|-----------------------|
G:--4-------------2---2--|-----------------------|
D:--4------5------2---2--|------2----------------|
A:--2------5------0---0--|------2----------------|
E:---------3-------------|--3---0----------------|


I like to see
e:---------------------------|--------------------------|
B:---------------------------|--------------------------|
G:--4-------------2---2------|--------------------------|
D:--4------5------2---2---2--|--------------------------|
A:--2------5------0---0---2--|--------------------------|
E:---------3--------------0--|--------------------------|


How you all would bleed for me
e:-----------------------|------------------------||------------------------|
B:-----------------------|------------------------||------------------------|
G:--4--------------------|---------------------3-*||--2---------------------|
D:--4------5------2---2--|------2--------------3-*||--2-------2-------------|
A:--2------5------0---0--|------2--------------1--||--0-------2-------------|
E:---------3-------------|--3---0-----------------||------3---0-------------|

If you scorn
e:-----------------------------------------|
B:-----------------------------------------|
G:*----------------------------------------|
D:*--4---3/---4--------------------------|
A:---2---1/---2---3/---4---3----3----3--|
E:------------------1/---2---1----1----1--|

my lo - ver
e:----------------------------------------|
B:----------------------------------------|
G:----------------------------------------|
D:-------------------------------------3/-|
A:--3----3----3----3----3----3----3----1/-|
E:--1----1----1----1----1----1----1-------|

satan got
e:----------------------------------------|
B:----------------------------------------|
G:----------------------------------------|
D:--4---3/---4---------------------------|
A:--2---1/---2----3/---4---3----3----3--|
E:-----------------1/---2---1----1----1--|


your thigh
e:----------------------------------------|
B:----------------------------------------|
G:----------------------------------------|
D:-------------------------------------3/-|
A:--3----3----3----3----3----3----3----1/-|
E:--1----1----1----1----1----1----1-------|

If you steal
e:----------------------------------------|
B:----------------------------------------|
G:----------------------------------------|
D:--4---3/---4---------------------------|
A:--2---1/---2----3/---4---3----3----3--|
E:-----------------1/---2---1----1----1--|


in hunger
e:----------------------------------------|
B:----------------------------------------|
G:----------------------------------------|
D:-------------------------------------3/-|
A:--3----3----3----3----3----3----3----1/-|
E:--1----1----1----1----1----1----1-------|

I will kick you when you try
e:----------------------------------------|-------------------------------|
B:----------------------------------------|-------------------------------|
G:----------------------------------------|-------------------------------|
D:--4---3/---4---------------------------|-----------------------7-------|
A:--2---1/---2----3/---4---3----3----3--|--3----3----3----3-----5----7--|
E:-----------------1/---2---1----1----1--|--1----1----1----1----------5--|


These stand for me
e:---------------------------|--------------------------|
B:---------------------------|--------------------------|
G:--4-------------2---2------|--------------------------|
D:--4------5------2---2---2--|--------------------------|
A:--2------5------0---0---2--|--------------------------|
E:---------3--------------0--|--------------------------|

Name your god and bleed the freak
e:-----------------------|-----------------------|
B:-----------------------|-----------------------|
G:--4-------------2---2--|-----------------------|
D:--4------5------2---2--|------2----------------|
A:--2------5------0---0--|------2----------------|
E:---------3-------------|--3---0----------------|


I like to see
e:---------------------------|--------------------------|
B:---------------------------|--------------------------|
G:--4-------------2---2------|--------------------------|
D:--4------5------2---2---2--|--------------------------|
A:--2------5------0---0---2--|--------------------------|
E:---------3--------------0--|--------------------------|

How you all would bleed for me
e:-----------------------|------------------------|
B:-----------------------|------------------------|
G:--4--------------------|--2---------------------|
D:--4------5------2---2--|--2-------2-------------|
A:--2------5------0---0--|--0-------2-------------|
E:---------3-------------|------3---0-------------|


Guitar Solo
e:----------------------------|--------------------------|
B:----------------------------|-----------------------------|
G:----------------------------|-----------------------------|
D:--6------2---2---4---4------|-----------------------------|
A:--4------0---0---2---2---4--|--(4)------------------------|
E:-------------------------2--|--(2)------------------------|


e:------------------------|------------------------|
B:------------------------|------------------------|
G:------------------------|------------------------|
D:--6------2---2---4---4--|--4---2-----------------|
A:--4------0---0---2---2--|--2---0---4-------------|
E:------------------------|----------2-------------|


e:----------------------------|-----------------------------|
B:----------------------------|-----------------------------|
G:----------------------------|-----------------------------|
D:--6------2---2---4---4------|-----------------------------|
A:--4------0---0---2---2---4--|--(2)------------------------|
E:-------------------------2--|--(4)------------------------|


e:------------------------|------------------------|
B:------------------------|------------------------|
G:------------------------|------------------------|
D:--6------2---2---4---4--|--4---2-----------------|
A:--4------0---0---2---2--|--2---0---4------(4)----|
E:------------------------|----------2------(2)----|

Volume swell this note
e:-------------------------|-----------------------|
B:-------------------------|-----------------------|
G:-----------------9-------|-----------------------|
D:-------------------------|-----------------------|
A:-------------------------|-----------------------|
E:-------------------------|-----------------------|


e:--------------------------|--------------------------|
B:--------------------------|--------------------------|
G:--------4--------4-----4--|-----------4--------4-----|
D:-----4--------4-----------|--------4-----4--------4--|
A:--2-----------------0-----|-----2-----------2--------|
E:-----------3--------------|--0-----------------------|


e:--------------------------|-------------------------|
B:--------------------------|-------------------------|
G:--------4--------4-----4--|----------------4--------|
D:-----4--------4-----------|-------------------4-----|
A:--2-----------------0-----|--0----------2--------2--|
E:-----------3--------------|-----3--0----------------|


e:--------------------------|--------------------------|
B:--------------------------|--------------------------|
G:--------4--------4-----4--|-----------4--------4-----|
D:-----4--------4-----------|--------4-----4--------4--|
A:--2-----------------0-----|-----2-----------2--------|
E:-----------3--------------|--0-----------------------|

e:--------------------------|-------------------------|
B:--------------------------|-------------------------|
G:--------4--------4-----4--|----------------4--------|
D:-----4--------4-----------|-------------------4-----|
A:--2-----------------0-----|--0----------2--------2--|
E:-----------3--------------|-----3--0----------------|


e:--------------------------|--------------------------|
B:--------------------------|--------------------------|
G:--------4--------4-----4--|-----------4--------4-----|
D:-----4--------4-----------|--------4-----4--------4--|
A:--2-----------------0-----|-----2-----------2--------|
E:-----------3--------------|--0-----------------------|


e:--------------------------|-------------------------|
B:--------------------------|-------------------------|
G:--------4--------4-----4--|----------------4--------|
D:-----4--------4-----------|-------------------4-----|
A:--2-----------------0-----|--0----------2--------2--|
E:-----------3--------------|-----3--0----------------|


e:--------------------------|--------------------------|
B:--------------------------|--------------------------|
G:--------4--------4-----4--|-----------4--------4-----|
D:-----4--------4-----------|--------4-----4--------4--|
A:--2-----------------0-----|-----2-----------2--------|
E:-----------3--------------|--0-----------------------|


e:--------------------------|-------------------------|
B:--------------------------|-------------------------|
G:--------4--------4-----4--|----------------4--------|
D:-----4--------4-----------|-------------------4-----|
A:--2-----------------0-----|--0----------2--------2--|
E:-----------3--------------|-----3--0----------------|


e:--------------------------|--------------------------|
B:--------------------------|--------------------------|
G:--------4--------4-----4--|-----------4--------4-----|
D:-----4--------4-----------|--------4-----4--------4--|
A:--2-----------------0-----|-----2-----------2--------|
E:-----------3--------------|--0-----------------------|

Bleed for
e:--------------------------|-------------------------|
B:--------------------------|-------------------------|
G:--------4--------4-----4--|----------------4--------|
D:-----4--------4-----------|-------------------4-----|
A:--2-----------------0-----|--0----------2--------2--|
E:-----------3--------------|-----3--0----------------|

me Bleed for me
e:--------------------------|--------------------------|
B:--------------------------|--------------------------|
G:--------4--------4-----4--|-----------4--------4-----|
D:-----4--------4-----------|--------4-----4--------4--|
A:--2-----------------0-----|-----2-----------2--------|
E:-----------3--------------|--0-----------------------|

(Ah________)
e:--------------------------|-------------------------|
B:--------------------------|-------------------------|
G:--------4--------4-----4--|-------------------------|
D:-----4--------4-----------|-------------------------|
A:--2-----------------0-----|--0----------2--2--2--2--|
E:-----------3--------------|-----3--0----0--0--0--0--|


These stand for me
e:---------------------------|--------------------------|
B:---------------------------|--------------------------|
G:--4-------------2---2------|--------------------------|
D:--4------5------2---2---2--|--------------------------|
A:--2------5------0---0---2--|--------------------------|
E:---------3--------------0--|--------------------------|

Name your god and bleed the freak
e:-----------------------|-----------------------|
B:-----------------------|-----------------------|
G:--4-------------2---2--|-----------------------|
D:--4------5------2---2--|------2----------------|
A:--2------5------0---0--|------2----------------|
E:---------3-------------|--3---0----------------|


I like to see
e:---------------------------|--------------------------|
B:---------------------------|--------------------------|
G:--4-------------2---2------|--------------------------|
D:--4------5------2---2---2--|--------------------------|
A:--2------5------0---0---2--|--------------------------|
E:---------3--------------0--|--------------------------|

How you all would bleed for me
e:-----------------------|------------------------|
B:-----------------------|------------------------|
G:--4--------------------|--2---------------------|
D:--4------5------2---2--|--2-------2-------------|
A:--2------5------0---0--|--0-------2-------------|
E:---------3-------------|------3---0-------------|


These stand for me
e:---------------------------|------------------------|
B:---------------------------|------------------------|
G:--4-------------2---2------|------------------------|
D:--4------5------2---2---2--|------------------------|
A:--2------5------0---0---2--|------------------------|
E:---------3--------------0--|------------------------|


Name your god and blead the freak
e:-----------------------|-----------------------|
B:-----------------------|-----------------------|
G:--4-------------2---2--|-----------------------|
D:--4------5------2---2--|------2----------------|
A:--2------5------0---0--|------2----------------|
E:---------3-------------|--3---0----------------|

I like to see
e:---------------------------|-------------------------|
B:---------------------------|-------------------------|
G:--4------------------------|-------------------------|
D:--4------5------2---2---2--|-------------------------|
A:--2------5------0---0---2--|-------------------------|
E:---------3--------------0--|-------------------------|

how you all would bleed for me
e:-----------------------|-----------------------------|
B:-----------------------|-----------------------------|
G:--4--------------------|-----------------------------|
D:--4------5------2---2--|------2----------------------|
A:--2------5------0---0--|------2----------------------|
E:---------3-------------|--3---0----------------------|


e:-----------------------------|
B:-----------------------------|
G:-----------------------------|
D:-----------------------------|
A:-----------------------------|
E:-----------------------------|