Alice In Chains — Dont Follow

0:00:
E---------2--------------2---------------0------------------------
B---3-------3-------3------3-------3-------3-----3-2------2-------
G-----2-------2-------2------2-------0-------0-------2------2-----
D-0-----0-------0------0-------0-------0-------0-------2------2--- 8 times
A-------------------------------------------------------0-------0-
E-----------------2--------------3--------------------------------


1:05:
E---------3---------------3-------------------------------------------
B-----------3---------------3-----3-2-------2-------3-2-------2-------
G---0---------0-----0---------0-------2-------2---------2-------2-----
D-----0---------0-----0---------0-------2-------2---------2-------2---
A-----------------------------------------0-------0---------0-------0-
E-3-----3---------3-----3---------------------------------------------

1:14:
E---------2--------------2---------------0------------------------
B---3-------3-------3------3-------3-------3-----3-2------2-------
G-----2-------2-------2------2-------0-------0-------2------2-----
D-0-----0-------0------0-------0-------0-------0-------2------2--- 9 times
A-------------------------------------------------------0-------0-
E-----------------2--------------3--------------------------------

2:19
E---------3---------------3-------------------------------------------
B-----------3---------------3-----3-2-------2-------3-2-------2-------
G---0---------0-----0---------0-------2-------2---------2-------2-----
D-----0---------0-----0---------0-------2-------2---------2-------2---
A-----------------------------------------0-------0---------0-------0-
E-3-----3---------3-----3---------------------------------------------

2:27:
E-2~~
B-3~~
G-2~~
D-0~~
A----
E----

~means to hold out

2:31:
E------------------------------2-2--2-2-2--2-0--0-2--2-2-
B-2-2--2-2-2--2-2--2-2--2-2-2--3-3--3-3-3--3-3--3-3--3-3-
G-2-2--2-2-2--2-2--2-2--2-2-2--2-2--2-2-2--2-2--2-2--2-2- 12 times
D-2-2--2-2-2--2-2--2-2--2-2-2--0-0--0-0-0--0-0--0-0--0-0-
A-0-0--0-0-0--0-0--0-0--0-0-0----------------------------
E--------------------------------------------------------

There's a little transition here, sorry I can't tab it. You're
Guess is as good as mine on this one.

4:00:
E---------2-------------------------
B---3-------3-----3-2------2--------
G-----2-------2-------2------2------
D-0-----0-------0-------2------2----
A-------------------------0-------0-
E-----------------------------------


E---------3---------------3--------------------------2-
B-----------3---------------3-----3-2-------2--------3-
G---0---------0-----0---------0-------2-------2------2-
D-----0---------0-----0---------0-------2-------2----0-
A-----------------------------------------0-------0----
E-3-----3---------3-----3------------------------------