Alice In Chains — Get Born Again

На этой странице Вы можете ознакомиться с 2 версиями подбора аккордов для гитары к песне "Get Born Again" группы (исполнителя) "Alice In Chains".

Get Born Again-Alice in Chains
tabbed by the all-powerful ambient narcosis

do this twice
-----------------------------------------------------------------------
-----------------------------------------------------------------------
-----9-----------------------------------------------------------------
---9---9-----9/-10----9-------9-/12--9------9-/10----10---10---10-----
-7--------7-(7)/8---7---7--7-(7)/107---7-7-(7)/8---8----8----8----8/7-
-----------------------------------------------------------------------

then comes
-----------------------------------------------------------------------
-----------------------------------------------------------------------
-----9-----------------------------------------------------------------
---9---9-----9-/10----9------9-/12--9------9-/10----------------------
-7--------7-(7)/8---7---7-7-(7)/107---7-7-(7)/8-----------------------
-----------------------------------------------------------------------
volume swell

Then there's lot's of feedback...i think it's the open A string with the
whammy bar.

Then there's this in there
--0--------------
----0------------
-----------------
-----------------
----------0------
-----------------

then do this twice
------------------------------------------------
---3--------------3-----------------------------
---2--2--3--4-----2--2--3-----------------------
---0--2--3--2--2--0--2--3--3--2-----------------
---0--0--1--2--2--0--0--1--3--2-----------------
---------------0-----------1--0-----------------

underneath that there's this
----------------------------
---0---3--------------------
---2B----2-0---2------------
----------------------------
----------------------------
----------------------------
feedback

That's all i have for now i'm working on the solo and everything else.
i think the rest after the solo is just variations on the opening riff.
i'll post again when i've got the rest.
Song: Get Born Again
Artist: Alice in Chains
Album: Alice in Chains
Tabbed by: James Hooper


Tunning low to high- Db,Ab,Db,Gb,Bb,eb

intro
e-------------------------------------------------------------------|
B-------------------------------------------------------------------|
G--4-4---4/-5---4-----4/-7---4----4/-5-5-5-5-5-5--------------------|
D-2-2---2-/-3--2-2---2-/-5--2-2--2-/-3-3-3-3-3-3--------------------|
A-------------------------------------------------------------------|
D-------------------------------------------------------------------|

after doing that a couple times guitar two comes in with

e-------------------------------------------------------------------|
B-------------------------------------------------------------------|
G-------------------------------------------------------------------|
D-3-2-2-2-2---------------------------------------------------------|
A-3-2-2-2-2---------------------------------------------------------|
D-3-2-2-2-2---------------------------------------------------------|
{palm mute}

then the chorus

e-------------------------------------------------------------------|
B-------------------------------------------------------------------|
G-------------------------------------------------------------------|
D-7-2-3-4---7-2-3-4-------------------------------------------------|
A-5-0-1-2---5-0-1-2-------------------------------------------------|
D---------0---------------------------------------------------------|

And that's all i've got on this song, see you next tab.