Alice In Chains — I Stay Away

На этой странице Вы можете ознакомиться с 2 версиями подбора аккордов для гитары к песне "I Stay Away" группы (исполнителя) "Alice In Chains".

#----------------------------------PLEASE NOTE---------------------------------#
#This file is the author's own work and represents their interpretation of the #
#song. You may only use this file for private study, scholarship, or research. #
#------------------------------------------------------------------------------##

I STAY AWAY by Alice In Chains Tab by Jill Valentine

I tabbed this out on a normal acoustic using standard tuning (but it also sounds great
down 1/2 step) The other tabs for this song were kinda weird sounding. This is pretty
accurate

INTRO
e]-0h2-2-2-0---3------------------------------
B]-3---3-3-3---3------------------------------
G]-2---2-2-2---5-----0-----0------------------
D]---------0-0-----2-----0-------0-----0-----0
A]---------0-0---3-----2-------2-----0-------0
E]---------0-0---------------5-----5-----5p4-0

Then the verses
e]-0h2-2-2-0---0---0-0-3----------------------------------
B]-3---3-3-3---3---3-3-3----------------------------------
G]-2---2-2-2---0---0-0-0---------0-----0------------------
D]-0-------0-0-2---2-2-2-------2-----0-------0-----0-----0
A]-0-------0-0-3---3-3-3-0-2-3-----2-------4-----0-------0
E]-0-------0-0---------------------------5-----5-----5p4-0

Yeah hey yeah want to travel south this year
I wo- -ont won't prevent safe passage here

This part sounds kinda wierd acoustically, but this is the closest I could come
e]-------------------------
B]-------------------------
G]-0h3p0-------------------
D]-------0h3p0-------------
A]-------------0h3p0-------
E]-------------------3p0-3b

Why you act crazy
Not an act maybe
So close a lady
Shif- -ty eyes shady

After this, you repeat the intro , then you do the next verse, identical to the first,
but the first part is done only once

Hey, yeah tears that soak a careless heart

Then the second part of the verse is done to these lyrics

Why you act frightened
I am enlightened
Your weakness builds me
So someday you'll see

Then the big powerful sounding chorus. Play it this way. but listen to the song for the
rhythm

e]-2-2-2-2-2-2---2-2-2-2-2-3-3-3-3-3-2---2-2-2-2-2-------------2
B]-3-3-3-3-3-3---3-3-3-3-3-3-3-3-3-3-3---3-3-3-3-3-3---3-3-3-5-3
G]-2-2-2-2-2-2---2-2-2-2-2-2-2-2-2-2-2---2-2-2-2-2-3---3-3-3-5-2
D]-0-0-0-0-0-0---0-0-0-0-0-0-0-0-0-0-0---0-0-0-0-0-3---3-3-3-5-0
A]-------------------------------------------------1---1-1-1-3-0
E]-------------------------------------------------------------0
I stay away

I'm not exactly sure on the solo, but the rest is there. If you have the solo,
would appreciate it
No one has ever put the right intro to this song..they all sound like crap...
sorry..here's the right one. It sounds perfect on at 12 string acoustic guitar.
Drop D tuning, tune down 1/2 step: Dadgbe

(let ring throughout)
D Csus2/D
e---5-----5-5-------3----
b---5h(7)-5-5-------3----
g---7-----7-7-------5----
d---0-----0-0--0-0--0----
a--------------0-0-------
D------------------------

Csus2 G/B Gsus2 D5
e--------------------------------
b--------------------------------
g------0----0--------------------
d----0----0--------0---0---------
a--3----2--------0---0--------0-0
D--------------5---5------5-4-0-0