Alice In Chains — It Aint Like That

На этой странице Вы можете ознакомиться с 2 версиями подбора аккордов для гитары к песне "It Aint Like That" группы (исполнителя) "Alice In Chains".

Alice in Chains
It Ain't like that
Facelift

Tabbed by Division Wall

Well i had some people ask me to tab this song out for them because there
are no tabs for this song on the net. Here it is, 99.9% right.

Tuning: 1/2 step down Eb,Ab,Db,Gb

Don't play anything in the intro, it is just the guitar

Verse 1:

Gb----------------R---------------
Db----------------E---------------
Ab----------------S---------------
Eb--0--3--5-5--3--T--0--3--5-5--3- listen to the song, not sure how many times that is played

Verse 2:
then when layne sings In my sight... play this

Gb----------------------------------
Db----------------------------------
Ab----------------------------------
Eb -0-1-1-1-1-3-3-1--0-1-1-1-1-3-3-1

Chorus:
then the chorus when layne sings See the cycle I've waited for play this

Gb---------------------------------
Db---------------------------------
Ab--3----5-------------------------
Eb----3-----5------3---5-----------

then for the solo play verse 2 and then once layne yells yeah switch to verse 1

That's it, once again i am damn close to 100% sure it is right, have fun!
#----------------------------------PLEASE NOTE---------------------------------#
#This file is the author's own work and represents their interpretation of the #
#song. You may only use this file for private study, scholarship, or research. #
#------------------------------------------------------------------------------##
From: stinky10@aol.com (Stinky10)
Date: 10 Jun 1995 17:27:13 -0400
Subject: TAB: It Ain't Like That, AIC

It Ain't Like That By Alice In Chains

Tune down 1/2 step

(
)
( Broken Strum

^...R Bend, Hold, and Release
> pull off/ hammer on
/ slide
[ ] harmonics
( ) step of bend

Riff 1
E (1)
|-)-0---------------------------------------------|
|-(-0---------------------------------------------|
|-)-1---------------------------------------------|
|-(-2---------------------------------------------|
|-)-2---------------------------------------------|
|-(-0-------------3^...R-----------------------|


Riff 2
|-----------------------------------------------------|
|-----------------------------------------------------|
|----------------------------------------------------|
|------------------------------------------------------|
|----2---2------3--3---3---------------------------|
|----0---0------1--1---1-------3----1----0--------|


Riff 2 with this fill once in the intro
w/ wah
|-----[12]-----------------------------------------|
|-----------[12]-----------------------------------|
|---------------------------------------------------|
|----------------------------------------------------|
|----------------------------------------------------|
|---------------------------------------------------|


Riff 3
|--------------------------------------------------|
|---------------------------------------------------|
|-------------------------------------------------|
|----5--------------7-------------------2--------|
|----3-----5-------5-----7-------------0---------|
|-----------3--------------5-------3--------------|


Solo
|------------------------------------------------------|
|------------------------------------------------------|
|------------------------------------------------------|
|-----/8--7------7>5>0-----3--2----------------|
|-------------------------------------------------------|
|-------------------------------------------------------|



|-------------------------------------------------------|
|---------------------3---5--------------------------|
|-----------0--2------------------------------------|
|---2--3-------------------------------------------|
|-----------------------------------------------------|
|-----------------------------------------------------|


(1) (1) (1)
|-------------------------------------------------------------|
|----------------------------15-------15-------15--------|
|---------12--14--12----14^...----17^-----17^-------|
|---/14-----------------------------------------------------|
|-------------------------------------------------------------|
|-------------------------------------------------------------|


(1) (1) (1/2) (1)
|-------------------------------------------------------------|
|---15-----15-------15-------15-------------------------|
|---17^----17^----R17------16-------14^----12------|
|-------------------------------------------------------------|
|-------------------------------------------------------------|
|-------------------------------------------------------------|

(1) (1)
|---15^---R15-----------------------------------------------|
|--------------------17----15..^R-----15--15--15--15--|
|---------------------------------------------------------------|
|---------------------------------------------------------------|
|---------------------------------------------------------------|
|---------------------------------------------------------------|



|-------------------------------------------------------------|
|---12--12--12--12-----10--10----8--8/5------------|
|-------------------------------------------------------------|
|-------------------------------------------------------------|
|-------------------------------------------------------------|
|-------------------------------------------------------------|


(1)
|-------------------------------------------------------|
|---0--3^R>0---------------------------------------|
|------------------0-----------------------------------|
|-------------------------------------------------------|
|-------------------------------------------------------|
|-------------------------------------------------------|