Alice In Chains — Killer Is Me

Title: Killer Is Me
Artist: Alice In Chains
Tuned down Ѕ a step

( ) - natural harmonics

Verses:
1st Guitar:
|------0----0----0----0----0----0---0---0---0---0---0---0----|
|-----10---10---10---10---10----0---0---0---0---0---0---0----|
|------9----9----9----9----9----6---6---6---6---6---6---6----|
|-----11---11---11---11---11----8---8---8---8---8---8---8----|
|------0----0----0----0----0----7---7---7---7---7---7---7--- |
|------0----0----0----0----0----6---6---6---6---6---6---6----|

2nd Guitar:
|--------------------(12)-------------------------------(12)-|
|----------5-------(12)-------------------5----------(12)----|
|--------4----6----9--------------------4----6------9--------|
|------7--7--7--7-8-------------------7----7---7--8----------|
|----0------------------------------0------------------------|
|------------------------------------------------------------|

Chorus:
1st Guitar:
|--0-----------------0-------------------0-----------------0-----------0--|
|--3-----------------2-------------------3-----------------2-----------1--|
|--4-[14 times]------3-[14 times]--------4-[14 times]------3-[7 times]-2--|
|--5-----------------4-------------------5-----------------4-----------3--|
|--5-----------------4-------------------5-----------------4-----------3--|
|--3-----------------2-------------------3-----------------2-----------1--|

2nd Guitar:
|----------------------------------------------------------------------0--|
|----------------------------------------------------------------------1--|
|------4------4-----------3-------3----------4------4----------3-------2--|
|----5--5---5--5-------4---4----4--4-------5--5---5--5-------4--4------3--|
|---5-5--5-5-5--5-----4-4---4--4-4--4-----5-5--5-5-5--5-----4-4--4-----3--|
|--3------3------3---2--------2------2---3------3------3---2------2----1--|

Those are the only parts to the song as far as I'm concerned. Repeat them accordingly.