Alice In Chains — Nutshell Acoustic

На этой странице Вы можете ознакомиться с 2 версиями подбора аккордов для гитары к песне "Nutshell Acoustic" группы (исполнителя) "Alice In Chains".

Tuning: down 1/2 step

b = bend p = pull off
r = release v = vibrato
s = slide x = string mute
h = hammer on


INTRO
Riff 1 - play this once, then play riff 2


E G D Cadd9
e --0------3--3--2--0----0---0--0--0--0---0---0--0--0--0---0--
B --0------3--3--3--3----3---3--3--3--3---3---3--3--3--3---3--
G --1------0--0--2--0----0---0--0--0--0---0---0--0--0--0---0--
D --2---2--0--0--0--2----2---2--2--0--2---2---2--2--0--2---2--
A --2---2--2--------3----3---3--3--3--3---3---3--3--3--3---0--
E --0---0--3--------------------------------------------------

G5 Em7
e --0--0--0--0--0--0--3--3------3-3-3-3--
B --3--3--3--3--3--3--3--3------3-3-3-3--
G --0--0--0--0--0--0--0--0------0-0-0-0--
D --2--2--2--2--2--2-----2---2--2-2-2-2--
A --0--0--0--0--0--0-----2---2-----------
E -----------------------0---------------

Riff 2 - play throughout the song

Em7 G D Cadd9
e --3---3--3--3--2--0----0---0--0--0--0---0---0--0--0--0---0--
B --3---3--3--3--3--3----3---3--3--3--3---3---3--3--3--3---3--
G --0---0--0--0--2--0----0---0--0--0--0---0---0--0--0--0---0--
D --2---2--0--0--0--2----2---2--2--0--2---2---2--2--0--2---2--
A --2---2--2--------3----3---3--3--3--3---3---3--3--3--3---0--
E --0---0--3--------------------------------------------------

G5 Em7
e --0--0--0--0--0--0--3--3------3-3-3-3--
B --3--3--3--3--3--3--3--3------3-3-3-3--
G --0--0--0--0--0--0--0--0------0-0-0-0--
D --2--2--2--2--2--2-----2---2--2-2-2-2--
A --0--0--0--0--0--0-----2---2-----------
E -----------------------0---------------

INTERLUDE
(Lead Part, Guitar 2 plays riff 2 throughout)

e --12---------------------------|------------------
B -----12------------------------|------------------
G --------12--11b12r11--9--------|-------7-9-10-9v--
D ------------------------9-10v--|--9-10------------
A -------------------------------|------------------
E -------------------------------|------------------


e --10------------------|--12---------------------------
B -----8----------------|-----12------------------------
G -------7--------------|--------12--11b12r11--9--------
D ---------7b8r7--------|------------------------9-10v--
A ---------------10-9v--|-------------------------------
E ----------------------|-------------------------------


e ------------------------------------|--10------------------
B ------------------------------------|-----8----------------
G -------7-9--s11--12-12p11-9--12-9v--|-------7--------------
D --9-10------------------------------|---------7b8r7--------
A ------------------------------------|---------------10-9v--
E ------------------------------------|----------------------


SOLO


e --12---------------------------|--10------------------
B -----12------------------------|-----8----------------
G --------12--11b12r11--9--------|-------7--------------
D ------------------------9-10v--|---------7b8r7--------
A -------------------------------|---------------10-9v--
E -------------------------------|----------------------



Cadd9
e ------------------------0---0--0-0-0-0--0--0-0-0-0-0--0-0-0--
B ------------------------3---3--3-3-3-0--0--0-3-3-0-0--0-0-3--
G ------------------9s11--0---0--0-0-0-0--0--0-0-0-0-0--0-0-0--
D --9br-------------------2---2--2-2-2-2--2--2-2-2-2-2--2-2-2--
A ------10--9br-----------3---3--3-3-3-3--3--3-3-3-3-3--3-3-3--
E --------------10---------------------------------------------




e --0-0-0---------|---------------------0---0--0-0-0-0--0--0--
B --3-3-3---------|---------------------3---3--3-3-3-0--0--0--
G --0-0-0---------|--4br-----------4s6--0---0--0-0-0-0--0--0--
D --2-2-2--5------|------5--4br---------2---2--2-2-2-2--2--2--
A --3-3-3----x-7v-|-------------5-------3---3--3-3-3-3--3--3--
E ----------------|-------------------------------------------

Main solo
e --0-0-0-0--0-0--------------------|--------------------|
B --3-3-0-0--0-0--------------------|--------------------|
G --0-0-0-0--0-0--------------------|--------------7-9v--|
D --2-2-2-2--2-2------------5-------|-------5-5s7--------|
A --3-3-3-3--3-3------3-2-----x-7v--|--5h7---------------|
E ----------------0-0-----3---------|--------------------|

e --------------10-------|----------------------------------|
B --8---8--11b------11r--|--8-10-8--7-8-7-------------------|
G ----9-----|------------|-----------------9-7-9-7v--7-9-7--|
D ---------hold----------|----------------------------------|
A ---------bend----------|----------------------------------|
E -----------------------|----------------------------------|

e ------------------------------|-------------------------|
B ------------------------------|-------------------------|
G ------------------------------|--------------7-9-9v--9--|
D --7-8-9--8-7-5v--7-5-7-5------|-------5-5s7-------------|
A --------------------------7v--|--5h7--------------------|
E ------------------------------|-------------------------|

e ---------------------------------------|------------------------|
B --7-8-10-7-7v--7-8-7---7---------------|------------------------|
G ---------------------9---9-7-7h9-7-7v--|------------------------|
D ---------------------------------------|--9-9-9-7-9-7-5-7-5-7b--|
A ---------------------------------------|------------------------|
E ---------------------------------------|------------------------|
Okay, here is the first version of the solo, which I prefer.
I found two on the net, but none on UG, so Iґm gonna post them.

The first one is by Coney420@aol.com

------------------------

Solo
e-------------------------------12+------------------------------
b---------------------9s11-12---12+------------------------------
g---------------------9s11-12------------------------------------
d-9b10r9--------------9s11-12------------------------------------
a--------10-9b10r9-----------------------------------------------
e------------------10-----------------0-0-10h12-0-15-0-12~-------

e-------------------------------12+------------------------------
b---------------------9s11-12---12+------------------------------
g---------------------9s11-12---12+------------------------------
d-9b10r9--------------9s11-12------------------------------------
a--------10-9b10r9-----------------------------------------------
e------------------10---------------------10h12-0-15-0-12~-------

e----------------------------10----------------------------------
b------------------8---10b12:::::12r10-10s8-7h8p7----------------
g-----------7-9~-9---9----------------------------9-7-9-7~--7-9-7
d-----5-7s9------------------------------------------------------
a-5h7------------------------------------------------------------
e----------------------------------------------------------------

e----------------------------------------------------------------
b--------------------------------------------7h8-10p8-7~--7h8p7--
g--------------------------------------7-9-9--------------------9
d-7h8h9-8p7-5~--7p5-7p5----------5-7s9---------------------------
a-----------------------7~---5h7---------------------------------
e----------------------------------------------------------------

e----------------------------------------------------------------
b-7--------------------------------------------------------------
g---9-7-7h9-7-7~-------------------------------------------------
d------------------9-9-9-7-9-7-5-7-5-7b9-------------------------
a----------------------------------------------------------------
e----------------------------------------------------------------


--------------------------------

The second one was tabbed by Steve M. at maxmar@wire.net.au

--------------------------------

Main solo
e --0-0-0-0--0-0--------------------|--------------------|
B --3-3-0-0--0-0--------------------|--------------------|
G --0-0-0-0--0-0--------------------|--------------7-9v--|
D --2-2-2-2--2-2------------5-------|-------5-5s7--------|
A --3-3-3-3--3-3------3-2-----x-7v--|--5h7---------------|
E ----------------0-0-----3---------|--------------------|

e --------------10-------|----------------------------------|
B --8---8--11b------11r--|--8-10-8--7-8-7-------------------|
G ----9-----|------------|-----------------9-7-9-7v--7-9-7--|
D ---------hold----------|----------------------------------|
A ---------bend----------|----------------------------------|
E -----------------------|----------------------------------|

e ------------------------------|-------------------------|
B ------------------------------|-------------------------|
G ------------------------------|--------------7-9-9v--9--|
D --7-8-9--8-7-5v--7-5-7-5------|-------5-5s7-------------|
A --------------------------7v--|--5h7--------------------|
E ------------------------------|-------------------------|

e ---------------------------------------|------------------------|
B --7-8-10-7-7v--7-8-7---7---------------|------------------------|
G ---------------------9---9-7-7h9-7-7v--|------------------------|
D ---------------------------------------|--9-9-9-7-9-7-5-7-5-7b--|
A ---------------------------------------|------------------------|
E ---------------------------------------|------------------------|