Alice In Chains — Over Now Unplugged

Alice In Chains - Unplugged

Hey ppl, this is my first tab BUT it is correct... feel free to e-mail me about any AIC song and i will
a tab for it, well here goes nothing... enjoy

Tuning
Db - Ab - Db - F - A - Db

---- Main Riff ---
( all down picking)

----4-4- 4-4- 4-4--4-- 4-4--4---4-----0-0----0-0--0-0-0--0-0-- 0--0-----|
-----4-4 -4-4--4-4--4- -6-4--6---4-----0-0----0-0--0-0-0--2-0- 2--0-----|
-----4-4 -4-4--4-4--4- -4-4--4---4-----0-0----0-0--0-0-0--0-0- 0--0-----|
-----4-4 -4-4--4-4--4- -5-4--5---4-----0-0----0-0--0-0-0--1-0- 1--0-----|
-----4-4 -4-4--7-6- 4- -4-4--4---4-----0-0----0-0 -3-2-0--0-0- 0--0-----|
-----4-4 -7-6--------4-- -4-4--4-- 4----0-0----3-2-0---------0-0- 0--0--|
^ ^
hold hold
Pre Chorus
(listen for strumming)

--8------7-------9----|
-11-----10-----12-----|
--8-------7------9----|
--8-------7------9----|
--8-------7------9----|
--8-------7------9----|


bridge

--4----------------------------------------------------------0-----------------------------------------------|
-------------------------------------------------------------------------------------------------------------|
------------4----------4----------4---------------4-----------------4----------4-----------4--------------4--|
-----3-------------3----------3----------------3-------------3--------------3------------3--------------3----|
--------00----2-----------3----------4----4-------------------00-------2------------3--- ----4----4----------|
-------------------------------------------2---------------------------------------------------------- 0-----|

Ending

-------4--------------------------------------0-----------------------------------------|
----------------------------------------------------------------------------------------|
----------------------------------------------------------------------------------------|
---------------------0--------0-------------------------0------0-------0--------0-------|
---------------4--------4---------4----------------4--------4------ 4------4------------|
-------------------0--------0----------0------------------0--------0-------0------------|

well thats all she wrote... i hope to get lots of emails for more alice in chains stuff
well later guys