Alice In Chains — Sea Of Sorrow

На этой странице Вы можете ознакомиться с 2 версиями подбора аккордов для гитары к песне "Sea Of Sorrow" группы (исполнителя) "Alice In Chains".

Sea of Sorrow
by Alice in Chains

Tuning: Eb, Ab, Db, Gb

Note: v means you can should vary the rhythm of this measure as you think
it should sound. I play it a couple of different ways, so I just give you
the basic.

Verse First time through

|-------------|-----------|-------------|-----------|
|*------------|-----------|-------------|----------*|
|*------------|-----------|-------------|----------*|
|--6/3--3--3--|--------3--|--1/3--3--3--|-----------|

|-------------|-----------|-------------|-----------|
|-------------|-----------|-------------|-----------|
|-------------|-----------|-------------|-----------|
|--3/1--1--1--|--------1--|--6/8--8--8--|-----------|

|-------------|-----------|-------------|-----------|
|-------------|-----------|-------------|-----------|
|-------------|-----------|-------------|-----------|
|--6/3--3--3--|--------3--|--1/3--3--3--|-333333333-|


Verse All other times
v v
|-------------|-----------|-------------|-----------|
|*------------|-----------|-------------|----------*|
|*------------|-----------|-------------|----------*|
|--6/3--3--3--|--3--3--3--|--1/3--3--3--|--3--3--3--|

v v
|-------------|-----------|-------------|-----------|
|-------------|-----------|-------------|-----------|
|-------------|-----------|-------------|-----------|
|--3/1--1--1--|--1--1--1--|--6/8--8--8--|--8--8--8--|

|-------------|-----------|-------------|-----------|
|-------------|-----------|-------------|-----------|
|-------------|-----------|-------------|-----------|
|--6/3--3--3--|--3--3--3--|--1/3--3--3--|-333333333-|

Pre-Chorus
|------------|-------------|-------------|-------------|
|*-----------|-------------|-------------|------------*|
|*-----------|-3-3-3-33333-|-------------|------------*|
|--1--1-1-1--|-------------|--6/3--3--3--|-333-333-333-|

|------------|-------------|
|------------|-------------|
|------------|-3-3-3-33333-|
|--1--1-1-1--|-------------|

|--------------------------|-----|
|--------------------------|-----|
|-000000000000000000000000-|--R--|
|--------------------------|-----|
^Drum Fill
Chorus
x3
|---------------------|------------------|
|*-------------------*|------------------|
|*----0-0-0----------*|-----0-0-0--------|
|-3-3-------0-00-0000-|-3-3-------0------|

That's about it....for the solo just play the chorus under it. And near
the end speed up the rhythm of the chorus...you can hear it on the cd.


Questions, Comments, etc. email
Song:sea of sorrow (intro)
band:alice in chains
album:facelift

key:
/=slide
^=bend
^v=bend and release


use a slide for guitar 2

guitar 1
|-------------------------------------------------------------------------|
|-------------------------------------------------------------------------|
|7-7---9-------------7-7---9----12-12-----12^---14^v--12/-------7-7-----9-|
|8-8---9-------------8-8---9----12-12-----12^---14^v--12/-------8-8-----9-|
|-------------------------------------------------------------------------|
|----0-------------------0----0-------0-0-----0-----------0----------0----|

guitar 2
|---------------------------------------------------------------------------|
|---------------------------------------------------------------------------|
|---------4/7/9------------9/7----------0-2/4/--------------2/3-2/3/0/2---0-|
|---------------------------------------------------------------------------|
|---------------------------------------------------------------------------|
|---------------------------------------------------------------------------|


guitar 1
|---------------------------|
|-----------0---------------|
|7-7---9----0-0---------9-9-|
|8-8---9----0-----------9-9-|
|---------------------------|
|----0----------0----0------|

guitar 2
|----8/12-------------------|
|---------------12/3----3---|
|---------------------------|
|---------------------------|
|---------------------------|
|---------------------------|