Alice In Chains — What The Hell Have I

На этой странице Вы можете ознакомиться с 2 версиями подбора аккордов для гитары к песне "What The Hell Have I" группы (исполнителя) "Alice In Chains".

e------------------------------
b------------------------------
g-2(b)---------------------2---
d------------------------3-----
a-----5-4---0--1--0----3-------
E---------3----------1---------

e------------------------------
b------------------------------
g-2(b)--------------------2----
d--------------------2(b)-0----
a------5-4---0--1--0-----------
E----------3-------------------

Just adjusting From what I have seen..I got this from guitar world magazine and
Jerry showed some of his guitar tricks in it.
Alice in chains,What the Hell have I?.
Tabbed by DarkRaven@Wanadoo.fr.

tune down 1/2 step
intro+verse
-----------------------------------------------------
-------------------------------------------2---------
2---------------------2---2----------------3---------
--0-----------2-----3-------0----------2---0---------
---4--0-1-0--------3---------4--0-1-0----------------
-----3----------1--------------3---------------------

chorus
------------------------------------------------------
------------------------3--3----------------------3---
------------------------2--2--2-------------------2---
------------------------0--0--2-------------------0---
----2--------2----3--2--------0---2-----2--3-2-0-----
----0-----1--0--------------------0--1--0------------

solo
------------------------------------------------------
------------------------------------------------------
22----------------------------------------------------
--21-----19------17-----14-----12--12/10-10-10/7-7/9--
----19/17---17/15--15/14--14/12----12/10----10/7-7----
------------------------------------------------------

outro
----------------------------------1-------------------
10-----8-----------10-------------1-------------------
--9--------9------------9---------2-------------------
----7---------7------------7------3-------------------
-----------------------------------------------
------------------------------------------------------
:: Ultimate Guitar Archive ::
http://www.ultimate-guitar.com