Alien Ant Farm — Attitude

На этой странице Вы можете ознакомиться с 4 версиями подбора аккордов для гитары к песне "Attitude" группы (исполнителя) "Alien Ant Farm".

Tye uses a 5 String Or 6 String For This Song it doesn’t matter because he doesn’t 
use the high C. I transcribed It For a 4 String Bass

-----------
Key
-----------
*- Harmonic
h- Hammer on
--------------
Intro: 2X
--------------
G:-------------------------------------------------7--
D:--2------4------5------7------9------5-----4--------
A:-----------------------------------------------5--5-
E:0---0--2---2--3---3--5---5--7---7--3---3--2--2------
------------
After The Second Time Do This Till The verse

------------Intro B

G:------7----------7--------------
D:--------------------------------
A:---5-----5----5----5------------
E:--------------------------------

------------
Verse:12X
------------

G:------------------
D:------------------
A:------------------
E:---7--5--5--------

After The 12th Time Keep repeating till the chorus but do this after each verse riff

-----------------------
G:---------------------
D:---------------------
A:------0------0-------
E:--0h2---0h2----------

------------------
The Chorus 2X
------------------

G:-----4-------6------7------7--------------6------9----
D:-----------------------------------7------------------
A:--2----2--4----4--5---5--5---5----------4---4--7---7--
E:--------------------------------5----5----------------

-------------------
Cool Bass Part:3x
-------------------

G:--5*---7*---9*--
D:----------------
A:----------------
E:----------------

-------------------
Then This Once
-------------------

G:---5*--7*--7*-
D:--------------
A:--------------
E:--------------

--------------------
Verse 12x
--------------------
Chorus 2x
--------------------
Intro at 2:50 4X
--------------------
Then Intro B Till Verse
---------------------
Then Verse 4x
---------------------
Then Ending
---------------------
G:---5*--7*--9*----
D:-----------------
A:-----------------
E:-----------------
This is my first tab its all right im sure of it u just gotta check for timing and the
times u do each riff might b off a little. Have Fun
Alien Ant Farm - Attitude 

Hey everyone. This is the tab for Attitude by Alien Ant Farm. Most
of the band say this is their favorite song. I believe this tab is
complete, any queries or corrections feel free to e-mail me at:
onesikbunny@yahoo.co.uk

5 string in standard tuning.

h=hammer-on
*=harmonic

Intro

G|--------------------------------------------------|
D|--2-----4-----5-----7-----9-----5-----4-----------|
A|--------------------------------------------5-----|
E|0---0-2---2-3---3-5---5-7---7-3---3-2---2---------|
B|------------------------------------------3---(3)-| X2

Don't play bracketed note second time just go to the bit below

Then...
G|--------------------------------|
D|--------------------------------|
A|--------------------------------|
E|--------------------------------|
B|-3--3-3--3--3-3--3--3-3--3--3-3-|

Verse Part 1 Then Verse Part 2
G|--------| G|----------------------------|
D|--------| D|----------------------------|
A|-2-0-0--| A|-2-0-0----0--2-0-0----0---0-|
E|--------| E|-------0h1---------0h1-0h1--|
B|--------| X12 B|----------------------------| X4

Chorus
G|----------------------------------------------------------------|
D|-------------------------------------------------5--5-5--5--4---|
A|-2--2-2--4--4-4--5--5-5--5--5-5--7--7-7--4--4-4---------------5-|
E|----------------------------------------------------------------|
B|----------------------------------------------------------------|

G|----------------------------------------------------------------|
D|-------------------------------------------------5--5-5--5--5-5-|
A|-2--2-2--4--4-4--5--5-5--5--5-5--7--7-7--4--4-4-----------------|
E|----------------------------------------------------------------|
B|----------------------------------------------------------------|

All that once for the 1st chorus.
Break after chorus...
G|-5*------5*--------5*------5*---|
D|---5*----------------5*------5*-|
A|--------------------------------|
E|--------------------------------|
B|--------------------------------|

Then...
Verse part 1 X8
Verse part 2 X4
Chorus X2

Then...Bridge (Like the intro but with a slight variation)
G|-------------------------------------------------|
D|---2-----3-----5-----7-----9-----5-----4---------|
A|---------------------------------------------5---|
E|-0---0-2---2-3---3-5---5-7---7-3---3-2---2-------|
B|-------------------------------------------3---3-| X2

Then...
G|--------------------------------------------------|
D|---4-----5-----7-----9-----11-----6-----4-----4---|
A|--------------------------------------------------|
E|-2---2-3---3-5---5-7---7-9----9-4---4-2---2-2---2-|
B|--------------------------------------------------|

G|-------------------------------------------|
D|-------------------------------------------|
A|-------------------------------------------|
E|-0---0-2---2-3---3-5---5-7---7-3---3-2---2-|
B|-------------------------------------------|

All that once then...
G|----------------------------------------------------------------|
D|----------------------------------------------------------------|
A|----------------------------------------------------------------|
E|----------------------------------------------------------------|
B|-3--3-3--3--3-3--3--3-3--3--3-3--3--3-3--3--3-3--3--3-3--3--3-3-|

Then...
Verse part 1 X2
Verse part 2 X1
Chorus X3

Outro
G|----------------------------5*---|
D|------------------------------5*-|
A|-2-0-0--2-0-0--2-0-0--2-0-0------|
E|---------------------------------|
B|---------------------------------|

That's the whole song folks. You may have noticed that it's
possible to play it in Drop D on a 4 string. I'll put up a
4 string version later.
----------------------------------------------------------------------------
ATTITUDE - Alien Ant Farm
----------------------------------------------------------------------------
Tabbed By : Matt
e-mail: spacedout11x@yahoo.com
I got this tab from watching AAF play this song on their DVD. It's exactly how Tye plays it.
Tuning: Standard BEADGE

INTRO
G|---------------------------------------------------------|
D|---------------------------------------------------------|
A|----7-----9----10------12-------14------10-----9-----5---|
E|---------------------------------------------------------|
B|-5----5-7--7-8----8-10----10-12----12-8----8-7---7-3---3-| x2

After the intro: play the low D on the B string and its octave on the A string randomly
the same rythm as the intro. let the notes ring.

G|---------------------------|
D|---------------------------|
A|--(5)---(5)---(5)---(5)----|
E|---------------------------|
B|-3---3-3---3-3---3-3---3//-|

VERSE PT 1
G|--------|
D|--------|
A|--------|
E|-7-5-5--|
B|--------| x12

G|----------------------------------------------------------|
D|----------------------------------------------------------|
A|----------------------------------------------------------|
E|-7-5-5-----5--7-5x5-----5-----5--7-5x5-----5--7-5-5-----5-|
B|-------5h7----------5h7---5h7----------5h7----------5h7---|

VERSE PT 2
G|--|----------------------------------------------------------|
D|--|----------------------------------------------------------|
A|54|----------------------------------------------------------|
E|--|-7-5-5-----5--7-5x5-----5-----5--7-5x5-----5--7-5-5-----5-|
B|--|-------5h7----------5h7---5h7----------5h7----------5h7---|

CHORUS
G|----------------------------------------------------------------|
D|---9-----11------12-------12-------14------11-------------------|
A|----------------------------------------------------------------|
E|-7---7-9----9-10----10-10----10-12----12-9----9-15-15-15--15-14-|
B|----------------------------------------------------------------|

G|---------------------------------------------------------|
D|---9-----7------------------14------11-------------------|
A|---------------5-----5-----------------------------------|
E|-7---7-5---5-------------12----12-9----9-15-15-15--15-14-|
B|-------------3---3-3---3---------------------------------|

BREAK
G|---------4*-|
D|---9*-5*----|
A|------------|
E|------------|
B|------------|

BRIDGE: play intro twice, then:
G|------------------------------------------------------------|
D|------------------------------------------------------------|
A|---9-----10------12-------14-------16------11-----9-----4---|
E|------------------------------------------------------------|
B|-7---7-8----8-10----10-12----12-14----14-9----9-7---7-2---2-|

The ending is just variations on the chorus

e mail me with any corrections/comments

| / slide up
| slide down
| h hammer-on
| p pull-off
| ~ vibrato
| * harmonic
| x Mute note
============================================================================
Attitude-Alien Ant Farm
ANThology

( ) = harmonic


Intro: w/ compression and delay

e-----------------------------------------------------------------
b-----------------------------------------------------------------
g--------------------------------------------------------------7--
d-----------------------------------------------------------------
a-----------------------------------------------------------------
e-----------------------------------------------------------------

x4
e-----------------------------------------------------------------
b-----------------------------------------------------------------
g---7---------7-----7---------9-----9---------6-----6---------7---
d-9---7-9-9-7---9-9---7-9-9-7---9-9---7-9-9-7---9-9---7-9-9-7---9-
a-----------------------------------------------------------------
e-----------------------------------------------------------------

e-----------------------------------------------------------------
b-----------------------------------------------------------------
g---7---------7-----7-------7-----7---------7-----7---------------
d-9---7-9-9-7---9-9---7-9-9---9-9---7-9-9-7---9-7---9-7-----------
a-----------------------------------------------------------------
e-----------------------------------------------------------------

bass, then

Verses:

e-----------------------------------------
b-----------------------------------------
g-----------------------------------------
d-----------------------------------------
a----5-----5--------7------9------9-------
e-7-----7-------7/9---/10-----10-----10--

e-----------------------------------------
b-----------------------------------------
g-----------------------------------------
d-----------------------------------------
a----4-----4--------------2-----2-------4-
e-5-----5------5------3-----3------3/5---

e-----------------------------------------
b-----------------------------------------
g-----------------------------------------
d-----------------------------------------
a----5-----5--------9------9------9-------
e-7-----7-------7/9---/10-----10-----10--

e-----------------------------------------
b-----------------------------------------
g-----------------------------------------
d-------------------------5-----5-------9-
a----4-----4-----------7-----7------7/9---
e-5-----5-------5-------------------------

Pre Chorus:

e-----------------------------------------------------------------
b-----------------------------------------------------------------
g----------------------------------0-------0----0-----------------
d----5--5--------7--7-------------12------12---12-----------------
a----5--5--------7--7-----9----9---9--9---------------------------
e-7-------7/9-9-------9--10---10-----10------------10------------

e-----------------------------------------------------------------
b-----------------------------------------------------------------
g-----------------------------------------------------------------
d-7----7--7---------7--7----5--5--5-------5-5-7-------------------
a-7--7-7--9-------7-7--7----5--5--5-------5-5-7-------------------
e-9--9------9--9---------9--7-------7--7------9--9/10-------------

e-----------------------------------------------------------------
b-----------------------------------------------------------------
g----------------------------------0-------0----0-----------------
d----5--5--------7--7-------------12------12---12-----------------
a----5--5--------7--7-----9----9---9--9---------------------------
e-7-------7/9-9-------9--10---10-----10------------10------------

e-----------------------------------------------------------------
b---------------------------5---5--5-5---5------------------------
g---------------------------5---5--5-5---5------------------------
d-7----7--7---------7--7----5---5--5-5---5---5/7--7----7--7-------
a-7--7-7--9-------7-7--7----7---7--7-7---7---7/9--9----9--9-------
e-9--9------9--9---------9----------------------------------------


e-----------------------------------------------------------------
b-------------(7)-------------------------------------------------
g-(7)---------------------(7)----------(5)------------------------
d-------(7)---------------------(7)---------(5)-------------------
a-----------------------------------------------------------------
e-----------------------------------------------------------------

Chorus:

e-----------------------------------------------------------------
b-----------------------------------------------------------------
g-----------------------------------------------------------------
d--------------7--7-7-7-7--5--4----------------7--7-7-7-7--5--4---
a-5---5-5---5---------------------5---5-5---5---------------------
e-----------------------------------------------------------------

e-----------------------------------------------------------------
b-----------------------------------------------------------------
g-----------------------------------------------------------------
d--------------7--7-7-7-7--5--4----------------7--7-7-7-7--5--4---
a-7---7-7---7-----------------------------------------------------
e---------------------------------3---3-3---3---------------------

e-----------------------------------------------------------------
b-----------------------------------------------------------------
g-----------------------------------------------------------------
d--------------7--7-7-7-7--5--4----------------7--7-7-7-7--5--4---
a-5---5-5---5---------------------5---5-5---5---------------------
e-----------------------------------------------------------------

e-----------------------------------------------------------------
b-----------------------------------------------------------------
g-----------------------------------------------------------------
d--------------7--7-7-7-7--5--4-------------7--7--7-7-7-7--5--4---
a-7---7-7---7---------------------5---5-5-------------------------
e-----------------------------------------------------------------

Bridge:

x4
e-----------------------------------------------------------------
b-----------------------------------------------------------------
g---7---------7-----7---------9-----9---------6-----6---------7---
d-9---7-9-9-7---9-9---7-9-9-7---9-9---7-9-9-7---9-9---7-9-9-7---9-
a-----------------------------------------------------------------
e-----------------------------------------------------------------

then

e-------------------------------------------
b-------------------------------------------
g----7-----------9-------9-----------11-----
d-11---9-11-11-9---11-11---9-11-11-9----11--
a-------------------------------------------
e-------------------------------------------

e-----------------------------------------------------
b-----------------------------------------------------
g----11-----------8---------8-------8-----------9-----
d-11----9-11-11-9---11-11-9---11-11---9-11-11-9---11--
a-----------------------------------------------------
e-----------------------------------------------------

e-------------------------------------------
b-------------------------------------------
g----9-----------8-------9-----------11-----
d-11---9-11-11-9---11-11---9-11-11-9----11--
a-------------------------------------------
e-------------------------------------------

e-------------------------------------------
b-------------------------------------------
g----11-----------8-------8-----------9-----
d-11----9-11-11-9---11-11---9-11-11-9---11--
a-------------------------------------------
e-------------------------------------------

e-----------------------------------------------------------------
b-----------------------------------------------------------------
g---9---------7-----7---------9-----9---------6-----6---------7---
d-9---7-9-9-7---9-9---7-9-9-7---9-9---7-9-9-7---9-9---7-9-9-7---9-
a-----------------------------------------------------------------
e-----------------------------------------------------------------

e-----------------------------------------------------------------
b-----------------------------------------------------------------
g---7---------7-----7---------9-----9---------6-----6---------7---
d-9---7-9-9-7---9-9---7-9-9-7---9-9---7-9-9-7---9-9---7-9-9-7---9-
a-----------------------------------------------------------------
e-----------------------------------------------------------------

e-----------------------------------------------------------------
b-----------------------------------------------------------------
g---7---------7-----7---------7-----7---------7-----7---------7---
d-9---7-9-9-7---9-9---7-9-9-7---9-9---7-9-9-7---9-9---7-9-9-7---9-
a-----------------------------------------------------------------
e-----------------------------------------------------------------

e-----------------------------------------------------------------
b-----------------------------------------------------------------
g---7---------7-----7---------7-----7---------7-------------------
d-9---7-9-9-7---9-9---7-9-9-7---9-9---7-9-9-7---9-7---------------
a-----------------------------------------------------------------
e-----------------------------------------------------------------

Outro: let ring

e-----------------------------------------------------------------
b---------------------------------------------------------(7)-----
g-7-----------------------------------------------(7)-------------
d-9---------------------------------------------------(7)---------
a-5---------------------------------------------------------------
e-----------------------------------------------------------------


that’s all

trevor jones
timmy91199@yahoo.ca