Alien Ant Farm — Calico

На этой странице Вы можете ознакомиться с 2 версиями подбора аккордов для гитары к песне "Calico" группы (исполнителя) "Alien Ant Farm".

Tabbed by: Tom Piddock (pid_182@yahoo.co.uk)

Standard tuning:

Intro and Verse:
E------------------------------------------------------
B----------------222222-111111-------------------------
G---------333333-313131-101010-------------------------
D--444444-434343---------------------------------------
A--646464----------------------646464646464434343------
E------------------------------------------------646400

Pre-Verse:
E-------------------------
B-------------------------
G-------------------------
D--4--8--4--11--4--8--4--6
A--4--8--4--11--4--8--4--6
E--2--6--2--9---2--6--2--4

Chorus:
E--2--4--5--7
B--2--4--5--7
G--3--5--6--8
D--4--6--7--9
A--4--6--7--9
E--2--4--5--7

Octave Solo:
E------------------------------------------
B------------------------------------------
G--6-8-10-11-10-8-6-5--6-8-10-11-13-11-10-8
D------------------------------------------
A--4-6-8--9--8--6-4-3--4-6-8--9--11--9--8-6
E------------------------------------------

E---------------------------
B---------------------------
G--11-6-10-4-6-8-13-11--10-8
D---------------------------
A--9--4-8--2-4-6-11--9--8--6
E--------------------------- x2

Breakdown:

E-6-2-4-5--------2-4-5-2
B-6-2-4-5-7-9-10-2-4-5-2
G-7-3-5-6-6-8-9--3-5-6-3
D-8-4-6-7-4-6-7--4-6-7-4
A-8-4-6-7--------4-6-7-4
E-6-2-4-5--------2-4-5-2

any queries then mail me.
Artist:Alien Ant Farm
Song:Calico
Album:Anthology
Tuning:Nat./Standard tuning
Tabbed By:Quinton Gardiner


Intro/Verse
e|---------------------------------------------------------------------------|
B|---------------------------3-3-3-3-3-3-------------------------------------|
G|-0-0-0-0-0-0--4-4-4-4-4-4--4-3-4-3-4-3--6-6-6-6-6-6------------------------|
D|-2-0-2-0-2-0--5-4-5-4-5-4---------------7-6-7-6-7-6------------------------|
A|---------------------------------------------------------------------------|
E|---------------------------------------------------------------------------|

e|---------------------------------------------------------------------------|
B|---------------------------------------------------------------------------|
G|-4-4-4-4-4-4---------------0-0-0-0-0-0--2-2-2-2-2-2------------------------|
D|-5-4-5-4-5-4--4-4-4-4-4-4--2-0-2-0-2-0--4-2-4-2-4-2------------------------|
A|--------------5-4-5-4-5-4--------------------------------------------------|
E|---------------------------------------------------------------------------|

Chorus
e|---------------------------------------------------------------------------|
B|---------------------------------------------------------------------------|
G|---------------------------------------------------------------------------|
D|-5-5-x-x-5-5-x-x-7-7-x-x-7-7-x-x-8-8-x-x-8-8-x-x-10-10-x-x-10-10-x-x-------|
A|-5-5-x-x-5-5-x-x-7-7-x-x-7-7-x-x-8-8-x-x-8-8-x-x-10-10-x-x-10-10-x-x-------|
E|-3-3-x-x-3-3-x-x-5-5-x-x-5-5-x-x-6-6-x-x-6-6-x-x--8--8-x-x--8--8-x-x-------|

Bridge
e|---------------------------------------------------------------------------|
B|---------------------------------------------------------------------------|
G|------11--11--------------------------------------------------------------|
D|-8----11--11--8-6-6-x-x-6-6-x-x-------------------------------------------|
A|-8-----9---9--8-6-6-x-x-6-6-x-x-------------------------------------------|
E|-6-------------6-4-4-x-x-4-4-x-x-------------------------------------------|

e|---------------------------------------------------------------------------|
B|---------------------------------------------------------------------------|
G|-7-9-11-12-11-9-7-6---7-9-11-12-11-9-7-6---11-12-14-16-14-12-11-9----------|
D|---------------------------------------------------------------------------|
A|-5-7--9-10--9-7-5-4---5-7--9-10--9-7-5-4----9-10-12-14-12-10--9-7----------|
E|---------------------------------------------------------------------------|

e|---------------------------------------------------------------------------|
B|---------------------------------------------------------------------------|
G|-12-7-11-6-7-9-11-12-14----------------------------------------------------|
D|---------------------------------------------------------------------------|
A|-10-5--9-4-5-7--9-10-12----------------------------------------------------|
E|---------------------------------------------------------------------------|