Alien Ant Farm — Courage

На этой странице Вы можете ознакомиться с 3 версиями подбора аккордов для гитары к песне "Courage" группы (исполнителя) "Alien Ant Farm".

Artist: Alien Ant Farm
Album: Anthology
Song: Courage
Composed by: Brennan Lentz

This song is really awesome if you play it right! The intro is really hard though,
so don't get mad at me if I messed it up.
This tab is all my own work and I have not copied from any of the other tabs.
(note: Tune your guitar down to drop d)

Intro:

e----------------------------------------------------
b----------------------------------------------------
g-----66----------------------66---------------------
d--4--66-44-2-4-6-7-6-4-2--4--66-44-2-4-6-7-6-4-2----
a--4--44-44-2-4-6-7-6-4-2--4--44-44-2-4-6-7-6-4-2----
d--4-----44-2-4-6-7-6-4-2--4-----44-2-4-6-7-6-4-2----

e--------------------------------------------------
b--------------------------------------------------
g-----66--------------------66---------------------
d--4--66-44-2-4-6-7-5-4--3--66-44-2-4-6-7-6-4-2----
a--4--44-44-2-4-6-7-5-4--3--44-44-2-4-6-7-6-4-2----
d--4-----44-2-4-6-7-5-4--3-----44-2-4-6-7-6-4-2----

(note: when playing the intro for the second time, the second
guitar plays the following:)
e-----------------
b--7--------------
g----4---4---4----
d------7---7---7--
a-----------------
d----------------- x2

Verse:
e------0---------0---------------
b--2-3---0---2-3---0---00000000--
g--------------------------------
d--------------------------------
a--------------------------------
d--------------------------------

(this next, different version of the verse isn't played in the
song, but if you think the verse is too boring just mess around
with these power chords)

e----------------
b--7--8--10--5---
g--6--7---9--4---
d--4--5---7--2---
a----------------
d----------------

Chorus:

e-----------------------------------
b-----------------------------------
g-----------------------------------
d--4--6-7--0--9-7--6--4-7--0--2-3---
a--4--6-7--0--9-7--6--4-7--0--2-3---
d--4--6-7--0--9-7--6--4-7--0--2-3---

Bridge(part 1):

e---------------------------------------------------
b---------------------------------------------------
g-----6666------------7777--------------7777--------
d--44-6666-44-xx---44-7777-44-xxxx---66-7777-66-xx--
a--44-4444-44-xx---44-5555-44-xxxx---66-5555-66-xx--
d--44------44-xx---44------44-xxxx---66------66-xx--

e----------------------------------
b----------------------------------
g-----99---------------------------
d--77-99-77-9-11-11-11-9-11-11-11--
a--77-77-77-9-11-11-11-9-11-11-11--
d--77----77-9-11-11-11-9-11-11-11--

Bridge(part 2):

e-------------------------------------------------
b-------------------------------------------------
g---------------6---------------------------------
d--4666-4666--4-6-4-3-2-0-4-6-7-5-4-3-------------
a--4666-4666--4-4-4-3-2-0-4-6-7-5-4-3-------------
d--4666-4666--4---4-3-2-0-4-6-7-5-4-3-------------

Song layout:

Intro x2
Verse
Intro
Chorus x2
Intro
Verse
Intro
Chorus x4
Bridge (part 1) x3
Bridge (part 2)
Intro
Chorus x4

end on e----
b----
g----
d-4-
a-4-
d-4-
Courage by Alien Ant Farm
TAB by Kyurre(kyurre@hotmail.com)
Standard tuning: low to high (E,A,D,G,B,E)

I think this song is played in drop-d on the album and when live,
but i think it adds a whole new dimension if you play it in standard!
The other problem i have found with the song is despite Terry Corso
being the only guitarist, a lot of the song has 2 guitar parts.
Anyway for anyone who wants to play it in dropped-d,
just tune your guitar down as usual, and play the d5 chords
an octave lower at the open position, as shown below
and transpose the rest of the song up a whole step:

E|----| E|----|
B|----| B|----|
G|----| PLAY THIS CHORD INSTEAD OF G|-7--|
D|-0--| D|-7--|
A|-0--| A|-5--|
D|-0--| E|-5--|

Anyway, any questions or complaints mail me, and i will do
the whole song in dropped-d and post it in the future!

INTRO
-----

DRUM ROLL
1|----------|---|
2|----------|---|
3|----------|---|
4|----------|-4-|
5|----------|-4-|
6|----------|-2-|

MAIN RIFF
---------
(PLAY 2X) (PLAY 5X)
1|-------------------------|-----------------------|-------------------------|
2|-------------------------|-----------------------|-------------------------|
3|-------------------------|-----------------------|-------------------------|
4|---------------3---------|---------------3-------|---------------3---------|
5|-4-4-0---------1---------|-4-4-0---------1-------|-4-4-0---------1---------|
6|-------2-0-2-3---3-2-0-2-|-------2-0-2-3---3-2-1-|-------2-0-2-3---3-2-0-2-|

LAST 4 BARS W/
(LET RING THROUGH-OUT)
1|-----------|--------------|
2|---7---9---|--------------|
3|-----------|--------------|
4|-----------|-7-9--7-9--7--|
5|-----------|--------------|
6|-----------|--------------|

VERSE
-----
(LET RING THROUGH-OUT)
1|-----|-----|-----|-----|-----|-----|-----|----------------|
2|-----|-----|-----|-----|-----|-----|-----|----------------|
3|--6--|--7--|--9--|--4--|--6--|--7--|--9--|--4/16-16-16-16-|
4|--X--|--X--|--X--|--X--|--X--|--X--|--X--|--X/-X--X--X--X-|
5|--4--|--5--|--7--|--2--|--4--|--5--|--7--|--2/14-14-14-14-|
6|-----|-----|-----|-----|-----|-----|-----|----------------|

PRE-CHORUS
----------
(PLAY 2X)
1|-------------------------|-----------------------|---------------------|
2|-------------------------|-----------------------|---------------------|
3|-------------------------|-----------------------|---------------------|
4|---------------3---------|---------------3-------|---------------3--2--|
5|-4-4-0---------1---------|-4-4-0---------1-------|-4-4-0---------1--2--|
6|-------2-0-2-3---3-2-0-2-|-------2-0-2-3---3-2-1-|-------2-0-2-3----0--|

CHORUS
------

1|-----|-------|----|-------|----|-------|----|-------| |---|
2|-----|-------|----|-------|----|-------|----|-------| |---|
3|-----|-------|-7--|-------|----|-------|-7--|-------| REPEAT 2x |---|
4|--4--|--6--7-|-7--|--9--7-|-6--|--4--7-|-7--|--2--3-| THEN |-4-|
5|--4--|--6--7-|-5--|--9--7-|-6--|--4--7-|-5--|--2--3-| |-4-|
6|--2--|--4--5-|-5--|--7--5-|-4--|--2--5-|-5--|--0--1-| |-2-|

1|-------------------------|
2|-------------------------|
3|-------------------------| PLAY 2X
4|---------------3---------|
5|-4-4-0---------1---------|
6|-------2-0-2-3---3-2-0-2-|

VERSE
-----
(LET RING THROUGH-OUT)
1|-----|-----|-----|-----|-----|-----|-----|----------------|
2|-----|-----|-----|-----|-----|-----|-----|----------------|
3|--6--|--7--|--9--|--4--|--6--|--7--|--9--|--4/16-16-16-16-|
4|--X--|--X--|--X--|--X--|--X--|--X--|--X--|--X/-X--X--X--X-|
5|--4--|--5--|--7--|--2--|--4--|--5--|--7--|--2/14-14-14-14-|
6|-----|-----|-----|-----|-----|-----|-----|----------------|

PRE-CHORUS
----------
(PLAY 2X)
1|-------------------------|-----------------------|---------------------|
2|-------------------------|-----------------------|---------------------|
3|-------------------------|-----------------------|---------------------|
4|---------------3---------|---------------3-------|---------------3--2--|
5|-4-4-0---------1---------|-4-4-0---------1-------|-4-4-0---------1--2--|
6|-------2-0-2-3---3-2-0-2-|-------2-0-2-3---3-2-1-|-------2-0-2-3----0--|

CHORUS
------

1|-----|-------|----|-------|----|-------|----|-------|
2|-----|-------|----|-------|----|-------|----|-------|
3|-----|-------|-7--|-------|----|-------|-7--|-------| REPEAT 2x
4|--4--|--6--7-|-7--|--9--7-|-6--|--4--7-|-7--|--2--3-|
5|--4--|--6--7-|-5--|--9--7-|-6--|--4--7-|-5--|--2--3-|
6|--2--|--4--5-|-5--|--7--5-|-4--|--2--5-|-5--|--0--1-|

THEN:
PLAY 2X

1|---------|-------|---------|-------|
2|---------|-------|---------|-------|
3|---------|-------|-7-7-7-7-|-------|
4|-4-4-4-4-|--6--7-|-7-7-7-7-|--9--7-|
5|-4-4-4-4-|--6--7-|-5-5-5-5-|--9--7-|
6|-2-2-2-2-|--4--5-|-5-5-5-5-|--7--5-|

1|---------|-------|---------|-------|
2|---------|-------|---------|-------|
3|---------|-------|-7-7-7-7-|-------|
4|-6-6-6-6-|--4--7-|-7-7-7-7-|--2--3-|
5|-6-6-6-6-|--4--7-|-5-5-5-5-|--2--3-|
6|-4-4-4-4-|--2--5-|-5-5-5-5-|--0--1-|

BRIDGE
------
(PLAY THROUGH 3X)

1|-----------------|-----------------|-----------------|
2|-----------------|-----------------|-----------------|
3|-----------------|-----------------|-----7-7-7-7-----|
4|-4-4---------4-4-|-4-4---------4-4-|-6-6-X-X-X-X-6-6-|
5|-4-4-4-4-----4-4-|-4-4-4-4-----4-4-|-6-6-5-5-5-5-6-6-|
6|-2-2-----0-1-2-2-|-2-2-----0-1-2-2-|-4-4---------4-4-|

(3RD TIME ONLY)
1|----------|------------------------|------------------------|
2|----------|------------------------|------------------------|
3|----------|------------------------|------------------------|
4|-7-7----7-|-9/11-11-11--9/11-11-11-|-9/11-11-11--9/11-11-11-|
5|-7-7----7-|-9/11-11-11--9/11-11-11-|-9/11-11-11--9/11-11-11-|
6|-5-5----5-|-7/9--9--9---7/9--9--9--|-7/9--9--9---7/9--9--9--|

WITH:
(1ST TIME ONLY)

6|-15-15-15-15-15-15-15-15-|

END WITH:

1|-------------------------|
2|-------------------------|
3|-------------------------|
4|-4---------------3-------|
5|-4-4-4-0---------1-------|
6|-2-------2-0-2-3---3-2-1-|

PRE-CHORUS
----------
(PLAY 3X)
1|-------------------------|---------------------|
2|-------------------------|---------------------|
3|-------------------------|---------------------|
4|---------------3---------|---------------3--2--|
5|-4-4-0---------1---------|-4-4-0---------1--2--|
6|-------2-0-2-3---3-2-0-2-|-------2-0-2-3----0--|

CHORUS
------

1|-----|-------|----|-------|----|-------|----|-------|
2|-----|-------|----|-------|----|-------|----|-------|
3|-----|-------|-7--|-------|----|-------|-7--|-------| REPEAT 2x
4|--4--|--6--7-|-7--|--9--7-|-6--|--4--7-|-7--|--2--3-|
5|--4--|--6--7-|-5--|--9--7-|-6--|--4--7-|-5--|--2--3-|
6|--2--|--4--5-|-5--|--7--5-|-4--|--2--5-|-5--|--0--1-|

THEN:
PLAY 2X

1|---------|-------|---------|-------|
2|---------|-------|---------|-------|
3|---------|-------|-7-7-7-7-|-------|
4|-4-4-4-4-|--6--7-|-7-7-7-7-|--9--7-|
5|-4-4-4-4-|--6--7-|-5-5-5-5-|--9--7-|
6|-2-2-2-2-|--4--5-|-5-5-5-5-|--7--5-|

1|---------|-------|---------|-------|
2|---------|-------|---------|-------|
3|---------|-------|-7-7-7-7-|-------|
4|-6-6-6-6-|--4--7-|-7-7-7-7-|--2--3-|
5|-6-6-6-6-|--4--7-|-5-5-5-5-|--2--3-|
6|-4-4-4-4-|--2--5-|-5-5-5-5-|--0--1-|

WITH:

6|-15-15-15-15-15-15-15-15-|

END WITH:

1|---|
2|---|
3|---|
4|-4-|
5|-4-|
6|-2-|

And that is it! I haven't put the exact ammounts of chords
you play in the faster parts, but if you listen to the cd,
you should be able to suss it out easy!
Kyurrexxx
Song: Courage
Artist: Alien Ant Farm
Album: ANThology
Transcribed by: Alan The Wise (spfan607@yahoo.com)

This is in standard tuning and it actually isnt very hard when you compare it
to the usual AAF bass lines. Just practice the speed and you should have no
problem with it. A blast to play live!! I tabbed it for a 5 string since it's
MUCH easier than playing it in dropped-D. TRUST ME. You can go ahead and try
it in dropped-D, but playing the verse gets rather difficult and you have to
reach a LOT farther. I recomend you just keep it in standard and if you don't
have a 5-string that you just bump the low D up an octave. Enjoy!

Verse
G:--------------------------------------------------------------
D:--------------------------------------------------------------
A:------4--4-----------1------------4--4-----------1------------
E:--2-2------3-2-0-2-3----3-2-0-2--------3-2-0-2-3----3-2-0-2---
B:--------------------------------------------------------------


G:---------------------------------------------------
D:---------------------------------------------------
A:--4-4-----------1---------4-4-----------1----------
E:------3-2-0-2-3---3-2--1------3-2-0-2-3---3-2-0-2--
B:---------------------------------------------------

Last line before chorus
G:-----------------------
D:-----------------------
A:-4-4-----------1-------
E:-----3-2-0-2-3----0----
B:-----------------------


Chorus (I never said you were a mistake at all...)
G:----------------------------------------------
D:----------------------------------------------
A:----------------------------------------------
E:--2----4--5-------7--5--4----2--5-------0--1--
B:-------------3---------------------3----------

Verse ver 2 (starts at 1:17)
G:------------------------------------------
D:------------------------------------------
A:--4--4--2--0---2---4----------------------
E:-----------------------5--5--4--2---5-----
B:---------------------------------------3--

G:-------------------------------------------
D:-------------------------------------------
A:--2--2--0------0---4-----------------------
E:-----------4-----------2--2--4--5---2---4--
B:-------------------------------------------

Chorus ver 2 (starts at 1:53)
G:----------------------------------------------------------------------
D:----------------------------------------------------------------------
A:---------------------------------------------2--0---------------------
E:--2-2-2-2-2-2-2-2-2--4--5--------------------------4-4-4-4-4-4-4-4-4--
B:---------------------------3-3-3-3-3-3-3-3-3--------------------------

G:------------------------------------
D:------------------------------------
A:-----0------------------------------
E:--2------------------------0--1--2--
B:--------3-3-3-3-3-3-3-3-3-----------

Bridge (You should try... these dismal moods have become contagious)
G:--------------------------------------------------------------
D:---------------------------------------------------------------
A:--------4-4-4-4--------------4-4-4-4---------------5-5-5-------
E:--2--2----------2--2---2--2----------2--2---4--4---------4--4--
B:---------------------------------------------------------------

G:-------------------------------
D:-------------------------------
A:------------2-4-4-4-2-4-4-4----
E:--5--5---5---------------------
B:-------------------------------

last line, last time through the bridge
G:-----------------------------------
D:-----------------------------------
A:--2-4-4-4-2-4-4-4------------------
E:------------------2-4-4-4-2-4-4-4--
B:-----------------------------------

LAST NOTE
G:---------
D:---------
A:---------
E:--2/15---
B:---------

THE END
Questions, Comments, Corrections, and Hate Mail can be sent to spfan607@yahoo.com

Please realize that if you request a song for me to tab out that the odds of
me tabbing it are not so high, consittering it takes a good deal of time.
But feel free to ask anyway! I'll still try my best.