Alien Ant Farm — Death Day

Tabbed by: Brian Mc (bri3_16@hotmail.com)
Artist: Alien Ant Farm
Song: Death Day
Album: Ant-thology
Tuning: Standard

Intro/Verse
e------------------------------------------------
B------------------------------------------------
G------------------------------------------------
D-99999999-4444-66-88----------------------------
A-77777999-4444-66-88----------------------------
E-----7777-2222-44-66----------------------------

Chorus
e------------------4---5-(2nd Time)------------------------------------
B-------------------5-5------------------------------------------------
G--------------------4-------------------------------------------------
D-4-44-4/8-88-8-9-9-9-9-x2-4-44-4/8-88-8-9-9-6--4-44-4/8-88-8-9-9-9-9b-
A-4-44-4/8-88-8-9-9-9-9----4-44-4/8-88-8-9-9-6--4-44-4/8-88-8-9-9-9-9b-
E-2-22-2/6-66-6-7-7-7-7----2-22-2/6-66-6-7-7-4--2-22-2/6-66-6-7-7-7-7--

Solo
e---------------------------------------------------------------------------------
B---------------------------------------------------------------------------------
G---------------------------------------------------------------------------------
D--------------------------------------------------------12b----------------------
A-------------------12b-----------------------12-14^12-------14-------------------
E-12-14b-14-14-12-14----14-12-14b-12-14b-12-14---------14-------12-12-12-14-14-14-

Solo (cont)
e---------------------------------------------------------------------------
B---------------------------------------------------------------------------
G-13-14-13------------------------------------------------------------------
D----------15-15-13b------------16-15-13-12-13-16-15-13-12-12-15-13-12------
A-------------------15-13-13-15---------------------------------------------
E---------------------------------------------------------------------------

Solo (cont)
e------------------------------------------------
B------------------------------------------------
G-1514-14-1412-12-1210-10-108/15-------------
D------------------------------------------------
A------------------------------------------------
E------------------------------------------------

Last Chorus Fill
e-----------3-5-6---------------3-5----------------------------------
B-----3-5-6-------try this too------5-3-6^5^6-5-3-6b-----------------
G-3-5--------/------------------------------------------------------
D------------|-------------------------------------------------------
A-Varitions of this part of a scale will give a successful fill------
E--------------------------------------------------------------------