Alien Ant Farm — Denigrate

На этой странице Вы можете ознакомиться с 3 версиями подбора аккордов для гитары к песне "Denigrate" группы (исполнителя) "Alien Ant Farm".

SONG: Denigrate
ARTIST: Alien Ant Farm
TABBED BY: Joe Handfield


Riff 1 w/ dist and light flange
E --------------------------------------------------------
B --------------------------------------------------------
G -----3-3-3-2---2----------------------------------------
D --------------------5--5-4-X-X-7--7-X-6-X-6-------------
A -X-X-0-0-0-0-X-0-X--3--5-5-X-X-5--5-X-5-X-5-x-0-x-0-2---
E -X-X-1-1-1-1-X-1-X-------------5--5---5---5-x-1-x-1-3---
Thumb on E string slide

E ----------------------------------------------
B ----------------------------------------------
G -----3-3-3-2---2------------------------------
D -------------------5---5-4--0-0---------------
A -X-X-0-0-0-0-X-0-X-3-X-3-3-------4------------
E -X-X-1-1-1-1-X-1-X---X------------------------
let strings ring
Main Riff & Chorus:

E ----------------------------------------
B ----------------------------------------
G --3--3-2--------------------------------
D ---------------5-4--0-0-0---------------
A --0--0-0-X--X--3-3--0-4-4--3--5---------
E --1--1-1-X--X--------------1--3---------

Verse(Guitar 1 on high B string notes, Guitar 2 other notes):

E -----------------------------------------0---
B --9-11-11-11-11-11---9-11-11-11-12-12--0---0-
G ---------------------------------------------
D --7-7-7-7-7-7-7-7--7-7-7-7-7-7-7-7-----------
A --5-------4----------------------------------
E -------------------5-------6-----------------
pick lightly w/ clean tone

Prechorus & chorus:

E ---------|-------------------------------
B ---------|-------------------------------
G --6-6-7--|-------------------------------
D --7-7-8--|--7-7-6-------------0-0--------
A ---------|--5-5-5---4-4-5-----9-7--------
E --5-5-6--|--5-5-5---5-5-6----------------


()- Play these notes on second time
E -------------------------------|
B -------------------------------|
G --7-----9-----11----(13)-------|
D -------------------------------|
A --5-----7-----9-----(11)-------|
E -------------------------------|
Tremelo pick (rapidly)

Interlude(with variations in rhythm)

E ------------|----------------------------
B ------------|----------------------------
G -XXX-0-0-0--|----------------------------
D -XXX-0-0-0--|-7-7-5-7---7-7-5-7----------
A -XXX-0-0-0--|-7-7-5-7---7-7-5-7----------
E ------------|-5-5-3-5---5-5-3-5----------
Bass plays different chords during interlude but guitar stays the same

End of the song uses the first two riffs
band: alien ant farm
song: denigrate (non lp version)
album: (non lp:smooth criminal single, lp ver:greatest hits cd)
tabbed by: kommon (faimilyval@aol.com)


intro
e--------------------------------------------------------------------|
b--------------------------------------------------------------------|
g--------------------------------------------------------------------|
d-4-x-4-x-4-3-3---3-x-3-x-3-2-2---2-x-2-x-2-1-1----------------------|
a-4-x-4-x-4-3-3---3-x-3-x-3-2-2---2-x-2-x-2-1-1----------------------|
e-4-x-4-x-4-3-3---3-x-3-x-3-2-2---2-x-2-x-2-1-1--2-4-5---------------|

e--------------------------------------------------------------------|
b--------------------------------------------------------------------|
g--------------------------------------------------------------------|
d-4-x-4-x-4-3-3---3-x-3-x-3-2-2---2-x-2-x-2-1-1----------------------|
a-4-x-4-x-4-3-3---3-x-3-x-3-2-2---2-x-2-x-2-1-1----------------------|
e-4-x-4-x-4-3-3---3-x-3-x-3-2-2---2-x-2-x-2-1-1--2-4-5-4-5-----------|
repeat 2nd part of intro x1

verse 1
e---------------------------------------------------------------------|
b---------------------------------------------------------------------|
g-2-2--4-3-2--4-3-2---4-3-2---(4-3-2-3-3-2-1-2-5-5)-------------------|
d---------------------------------------------------------------------|
a---------------------------------------------------------------------|
e---------------------------------------------------------------------|
bared part x2

play intro

bar 1
e---------------------------------------------------------------------|
b---------------------------------------------------------------------|
g-4-3-2-3-3-2-1-2-5-5---4-3-2-3-3-2-1-2-5-5---------------------------|
d---------------------------------------------------------------------|
a---------------------------------------------------------------------|
e---------------------------------------------------------------------|

play verse 1
play intro

bar 2
e-----------------------------------------------------------------------|
b-----------------------------------------------------------------------|
g-----------------------------------------------------------------------|
d--3-3-3-1--3-3-3-4-----------------------------------------------------|
a--3-3-3-1--3-3-3-4-----------------------------------------------------|
e--3-3-3-1--3-3-3-4-----------------------------------------------------|
x 2
verse 3
e---------------------------------------------------------------------|
b---------------------------------------------------------------------|
g-2-2-2-2-4-2-2-2-2-1-------------------------------------------------|
d-2-2-2-2-4-2-2-2-2-1-------------------------------------------------|
a-2-2-2-2-4-2-2-2-2-1-------------------------------------------------|
e---------------------------------------------------------------------|
x 2

play bar
play verse x 2
play intro

outro
e---------------------------------------------------------------------|
b---------------------------------------------------------------------|
g---------------------------------------------------------------------|
d-4-3-2-3-3-2-1-2-5-5---4-3-2-3-3-2-1-2-5-5---------------------------|
a---------------------------------------------------------------------|
e---------------------------------------------------------------------|
then play that on the g string
SONG: Denigrate
ARTIST: Alien Ant Farm
TABBED BY: Nick Fogarty (muffinhead986@hotmail.com)

I only tabbed the intro coz it is the only good part of the song

S=SLIDE

Riff 1
E ----------------------------------------
B ----------------------------------------
G ----------------------------------------
D ---------------5-5-X-X-7-X-6-X-7-7-7S-9-
A -X-X-3-X-X-3-X-3-3-X-X-5-X-4-X-5-5-5S-7- x1
E -X-X-1-X-X-1-X--------------------------

Riff 2
E ----------------------------------------
B ----------------------------------------
G ----------------------------------------
D ---------------5-5----------------------
A -X-X-3-X-X-3-X-3-3-5-5-4---------------- X1
E -X-X-1-X-X-1-X--------------------------

Riff 1x3 then

E ----------------------------------------
B ----------------------------------------
G ----------------------------------------
D ---------------5-5----------------------
A -X-X-1-X-X-1-X-3-3-5-4-5-0-1------------
E -X-X-1-X-X-1-X--------------------------

There you go, easy. please e-mail me if it is wrong