Alien Ant Farm — Flesh And Bone

На этой странице Вы можете ознакомиться с 3 версиями подбора аккордов для гитары к песне "Flesh And Bone" группы (исполнителя) "Alien Ant Farm".

Artist: Alien Ant Farm
Song: Flesh and Bone
Album: Anthology

This is a good song great bass line
tabs in paranthesis are harmonics
Send Questions or comments to slipvayne1@hotmail.com

Fill
G------------
D------------
A-----0-2-0-2
E-2-3--------

Intro
G----------------------------------------------------
D----------------------------------------------------
A-0-0-2--0-0-2--0-0-2--0-0-2------0-0-2--0-0-2--0-0-2
E------------------------------9---------------------

Fill
G------------
D------------
A-----0-2-0-2
E-2-3--------

Verse

G---------------------------------------------------------
D--(5)(5)---------(5)(5)--------(5)----------(5)----0-0-2- X4
A--(5)(5)--0-0-2--(5)(5)--0-0-2----(5)--0-0-2---(5)-0-0-2-
E---------------------------------------------------------

Chorus
each note is played 16 times except for the 0's and 1's on the A string which are played 8X

G--------------
D-0-------0----
A---0-1--------
E-------2---2-3


No sure what yah call this is called
G-----------------------------------------
D----------------------------------0-2-0-2
A-0-0-2---0-0-2--0-0-2--0-0-2--2-3--------
E-----------------------------------------

Verse X4

Chorus X2

Interlude

G-----------------------------------------------------------------------------------
D-----------------------------------------------------------------------------------
A-2---0-------------0-2---0-2----2------0-----------0-2---2--0--------------0-2--0-2
E-------3--2---2--3-----------------2------0---2-3-------------3---2---2--3---------


Slow Breakdown Part

G-------------
D-------------
A-5/9--3/7-0-0
E-------------

Verse X2

Then Chorus for the rest of the song
Tabbed by: Brian Mc (bri3_16@hotmail.com)
Artist: Alien Ant Farm
Song: Flesh and Bone
Album: Ant-thology
Tuning: Standard

Verses:
e---------------------------------
B---3-3-3-3-2-2-2-2---------------
G---4-4-4-4-2-2-2-2---------------
D---------------------------------
A---------------------------------
E---------------------------------

Other verse part:
e---------------------------------
B---------------------------------
G---------------------------------
D---2-2-4-------------------------
A---0-0-2-------------------------
E---------------------------------

Chorus: These are the chords
e---------------------------------
B---------------------------------
G---7--------------2--------------
D---7---7---8--4---2--------------
A---5---7---8--4---0--------------
E---5---5---6--2---0--------------

That one guitar part: (2:11)
e-----------------------------------------------------------------------------------
B-----------------------------------------------------------------------------------
G-----------------------------------------------------------------------------------
D--------------------------------------2--4--x-x-x-x-x--2--4-x-x-x-x-x--------------
A----5/4-2------2----2-----------------0--2--x-x-x-x-x--0--2-x-x-x-x-x--------------
E------------5------3----2-2-0-2-3-5---------x-x-x-x-x-------x-x-x-x-x--------------

e-----------------------------------------------------------------------------------
B-----------------------------------------------------------------------------------
G--4--------------------------------------------------------------------------------
D--4--4---7--2--------------2--4--x-x-x-x-x---2--4--x-x-x-x-x-----------------------
A--2--4---7--2--------------0--2--x-x-x-x-x---0--2--x-x-x-x-x-----------------------
E-----2---5--0--0-2-3-5-----------x-x-x-x-x---------x-x-x-x-x-----------------------

e-----------------------------------------------------------------------------------
B-----------------------------------------------------------------------------------
G-----------------------------------------------------------------------4-----------
D--------------------------------------2--4-x-x-x-x-x--2--4-x-x-x-x-x---4-----------
A----5/4-2------2----2-----------------0--2-x-x-x-x-x--0--2-x-x-x-x-x---2-----------
E------------5-----3----2-2-0-2-3-5---------x-x-x-x-x-------x-x-x-x-x---------------

Harmonics:
e---------------------------
B----5----------------------
G------5--------------------
D---------------------------
A--------5------------------
E----------5----------------
AlienAntFarm-FleshAndBone 
tabbed by lupus (lupus182@ziplip.com)

INTRO
E-0--0--0--0--2--2--2--2-----
B-3--3--3--3--2--2--2--2-----
G-4--4--4--4--2--2--2--2-----
D----------------------------
A----------------------------
E----------------------------


CHORUS
D5 A5 A#5 B5 D5 x577
Please show me a sign A5 577
F#5 G5 A5 A#5 688
Come inside kneel B5 799
F#5 G5 F#5 244
Remember who built your home G5 355
A5
I built you flesh and bone


BRIDGE
E-------------------------------------------------------
B-------------------------------------------------------
G-------------------------------------------------------
D------------------------7/9-x-x-x--x-x-7/9-x-x-x-------
A-5p4-2-0-2--------------7/9-x-x-x--x-x-7/9-x-x-x-------
E-----------3-2-0-2h3-3--5/7-x-x-x--x-x-5/7-x-x-x-------

--------------------------------------------------------
--------------------------------------------------------
--------------------------------------------------------
-9---4---7--2-----------7/9-x-x-x--x-x-7/9-x-x-x--------
-9---4---7--2-----------7/9-x-x-x--x-x-7/9-x-x-x--------
-7---2---5--0--0-2h3-3--5/7-x-x-x--x-x-5/7-x-x-x--------