Alien Ant Farm — Glow

На этой странице Вы можете ознакомиться с 2 версиями подбора аккордов для гитары к песне "Glow" группы (исполнителя) "Alien Ant Farm".

Tabber: Connor Gent.
Song: Glow
Artist: AAF

I love A.A.F.

intro
e-----------------|
B-----------------|
G-----------------|
D-555-555-555-555-|x4
A-333-222---------|
E---------666-555-|

e-----------------|
B-----------------|
G-----------------|
D-555-333-555-333-|
A-333-555-666-555-|
E-----------------|

e----------------------------|
B----------------------------|
G----------------------------|
D----------------------555555|
A-555555-666666-777777-222222|
E-333333-333333-333333-xxxxxx|

e-----------------|
B-----------------|
G-----------------|
D-555-555-555-555-|x2
A-333-222---------|
E---------666-555-|

e-----------------|
B-----------------|
G-----------------|
D-555-333-555-333-|
A-333-555-666-555-|
E-----------------|

e----------------------------|
B----------------------------|
G----------------------------|
D----------------------555555|
A-555555-666666-777777-222222|
E-333333-333333-333333-xxxxxx|

chorus.

E G C9
I'll be the switch she turns on
E G F
She'll be mine too
I get off
E G F
I'll be the fuse that she blows
E G C9
And even with the lights out we'll glow
E G C9
Glow, Glow, Glow

e------3-------5---6-5-3----------------------3-------3s5-5-3-3--------------
B--3s5---5-4-3----3-3---------------------------53/5----------5-5-3-3-------
G------------------------0/2---0---0-----2-4------------------------4-3-2--
D------------------------------4---2---2-2-----------------------------------
A----------------------------------------------------------------------------
E----------------------------------------------------------------------------

e--------------------3---3-5-3-5-7-5-7-10-7-10-12-10-12--|
B--------3---3-5-3-5---5---------------------------------|
G--4-2-4---4---------------------------------------------|
D--------------------------------------------------------|
A--------------------------------------------------------|
D--------------------------------------------------------|

e-12-12-12--15-15-14-14-12-12-10/12-12-10/12-12-10-------------15-15-14-14-12
B-------------------------------------------------12--12-12-12---------------
G----------------------------------------------------------------------------
D-------------------------------------------------------7-7-7----------------
A----------------------------------------------------------------------------
E----------------------------------------------------------------------------
the 7's ^ go after the last numbers on 'e'
e-------------------------------------------------15/17-12s15p12----12-10/12
B------------------------------------15-12-15-12-15-12-15-12-15-12----------
G-----------------------------4---4-7---------------------------------------
D7-5-4-5-4---4------4-5-7-5-7---7-------------------------------------------
A----------7---7-5-7--------------------------------------------------------
E---------------------------------------------------------------------------

back to chorus x3
Alien ant farm glow

Standard Tunning

D = Strum down
U = Strum up

INTRO
e ---------------------------------------------
B ---------------------------------------------
G --------------------------------------------- 4x
D ---------------------------------------------
A -10--10-10--10--10-10--8---8--8---7--7—-7--7-
E -8---8--8---7---7--7---6---6--6---5--5--5—-5-
D D U D D U D D U D U D U

e -------------------------------------------------------
B -------------------------------------------------------
G -------------------------------------------------------
D -------------------------------------------------------
A -10--10-10--12---12--12---13---13--13---12--12--12--12-
E -8---8--8---10---10--10---11---11--11---10--10--10--10-
D D U D D U D D U D U D U

e -------------------------------------
B -------------------------------------
G -------------------------------------
D -------------------------------------
A -5-5-5-5--6-6-6-6--9-9-9-9--10101010-
E -3-3-3-3--3-3-3-3--7-7-7-7--8-8-8-8--
D D D D D D D D D D D D D D D D

RIFF
e ---------------------------------------------
B ---------------------------------------------
G --------------------------------------------- 2x
D ---------------------------------------------
A -10--10-10--10--10-10--8---8--8---7--7—-7--7-
E -8---8--8---7---7--7---6---6--6---5--5--5—-5-
D D U D D U D D U D U D U

e -------------------------------------------------------
B -------------------------------------------------------
G -------------------------------------------------------
D -------------------------------------------------------
A -10--10-10--12---12--12---13---13--13---12--12--12--12-
E -8---8--8---10---10--10---11---11--11---10--10--10--10-
D D U D D U D D U D U D U

e -------------------------------------
B -------------------------------------
G -------------------------------------
D -------------------------------------
A -5-5-5-5--6-6-6-6--9-9-9-9--10101010-
E -3-3-3-3--3-3-3-3--7-7-7-7--8-8-8-8--
D D D D D D D D D D D D D D D D





CHORUS
e ----------------------------------------
B ----------------------------------------
G -9-9--5-5-------5-5--9-9--5-5-------5-5-
D -9-9--5-5--5-5--5-5--9-9--5-5--5-5--5-5-
A -7-7--3-3--5-5--3-3--7-7--3-3--5-5--3-3-
E -----------3-3-----------------3-3------
D D D D D D D D D D D D D D D D

e --------------------
B --------------------
G -9-9--5-5-----------
D -9-9--5-5--3-3--3-3-
A -7-7--3-3--3-3--3-3-
E -----------1-1--1-1-
D D D D D D D D

e ----------------------------------------
B ----------------------------------------
G -9-9--5-5-------5-5--9-9--5-5-------5-5-
D -9-9--5-5--5-5--5-5--9-9--5-5--5-5--5-5-
A -7-7--3-3--5-5--3-3--7-7--3-3--5-5--3-3-
E -----------3-3-----------------3-3------
D D D D D D D D D D D D D D D D

RIFF
e ---------------------------------------------
B ---------------------------------------------
G --------------------------------------------- 4x
D ---------------------------------------------
A -10--10-10--10--10-10--8---8--8---7--7—-7--7-
E -8---8--8---7---7--7---6---6--6---5--5--5—-5-
D D U D D U D D U D U D U

e -------------------------------------------------------
B -------------------------------------------------------
G -------------------------------------------------------
D -------------------------------------------------------
A -10--10-10--12---12--12---13---13--13---12--12--12--12-
E -8---8--8---10---10--10---11---11--11---10--10--10--10-
D D U D D U D D U D U D U

e -------------------------------------
B -------------------------------------
G -------------------------------------
D -------------------------------------
A -5-5-5-5--6-6-6-6--9-9-9-9--10101010-
E -3-3-3-3--3-3-3-3--7-7-7-7--8-8-8-8--
D D D D D D D D D D D D D D D D

CHORUS
e ----------------------------------------
B ----------------------------------------
G -9-9--5-5-------5-5--9-9--5-5-------5-5-
D -9-9--5-5--5-5--5-5--9-9--5-5--5-5--5-5-
A -7-7--3-3--5-5--3-3--7-7--3-3--5-5--3-3-
E -----------3-3-----------------3-3------
D D D D D D D D D D D D D D D D



e --------------------
B --------------------
G -9-9--5-5-----------
D -9-9--5-5--3-3--3-3-
A -7-7--3-3--3-3--3-3-
E -----------1-1--1-1-
D D D D D D D D

e ------------------------------------------------------------
B ------------------------------------------------------------
G -9-9--5-5-------5-5--9-9--5-5-------5-5--9-9--5-5-------5-5-
D -9-9--5-5--5-5--5-5--9-9--5-5--5-5--5-5--9-9--5-5--5-5--5-5-
A -7-7--3-3--5-5--3-3--7-7--3-3--5-5--3-3--7-7--3-3--5-5--3-3-
E -----------3-3-----------------3-3-----------------3-3------
D D D D D D D D D D D D D D D D D D D D D D D D

e --------------------
B --------------------
G -9-9--5-5-----------
D -9-9--5-5--3-3--3-3-
A -7-7--3-3--3-3--3-3-
E -----------1-1--1-1-
D D D D D D D D

e ----------------------------------------
B ----------------------------------------
G -9-9--5-5-------5-5--9-9--5-5-------5-5-
D -9-9--5-5--5-5--5-5--9-9--5-5--5-5--5-5-
A -7-7--3-3--5-5--3-3--7-7--3-3--5-5--3-3-
E -----------3-3-----------------3-3------
D D D D D D D D D D D D D D D D

RIFF
e ---------------------------------------------
B ---------------------------------------------
G ---------------------------------------------
D ---------------------------------------------
A -10--10-10--10--10-10--8---8--8---7--7—-7--7-
E -8---8--8---7---7--7---6---6--6---5--5--5—-5-
D D U D D U D D U D U D U

e -------------------------------------
B -------------------------------------
G -------------------------------------
D -------------------------------------
A -5-5-5-5--6-6-6-6--9-9-9-9--10101010-
E -3-3-3-3--3-3-3-3--7-7-7-7--8-8-8-8--
D D D D D D D D D D D D D D D D

SOLO

INSTRUMENT BREAK

CHORUS
e ----------------------------------------
B ----------------------------------------
G -9-9--5-5-------5-5--9-9--5-5-------5-5-
D -9-9--5-5--5-5--5-5--9-9--5-5--5-5--5-5-
A -7-7--3-3--5-5--3-3--7-7--3-3--5-5--3-3-
E -----------3-3-----------------3-3------
D D D D D D D D D D D D D D D D
e --------------------
B --------------------
G -9-9--5-5-----------
D -9-9--5-5--3-3--3-3-
A -7-7--3-3--3-3--3-3-
E -----------1-1--1-1-
D D D D D D D D

e ------------------------------------------------------------
B ------------------------------------------------------------
G -9-9--5-5-------5-5--9-9--5-5-------5-5--9-9--5-5-------5-5-
D -9-9--5-5--5-5--5-5--9-9--5-5--5-5--5-5--9-9--5-5--5-5--5-5-
A -7-7--3-3--5-5--3-3--7-7--3-3--5-5--3-3--7-7--3-3--5-5--3-3-
E -----------3-3-----------------3-3-----------------3-3------
D D D D D D D D D D D D D D D D D D D D D D D D

e --------------------
B --------------------
G -9-9--5-5-----------
D -9-9--5-5--3-3--3-3-
A -7-7--3-3--3-3--3-3-
E -----------1-1--1-1-
D D D D D D D D

e ------------------------------------------------------------
B ------------------------------------------------------------
G -9-9--5-5-------5-5--9-9--5-5-------5-5--9-9--5-5-------5-5-
D -9-9--5-5--5-5--5-5--9-9--5-5--5-5--5-5--9-9--5-5--5-5--5-5-
A -7-7--3-3--5-5--3-3--7-7--3-3--5-5--3-3--7-7--3-3--5-5--3-3-
E -----------3-3-----------------3-3-----------------3-3------
D D D D D D D D D D D D D D D D D D D D D D D D

RIFF
e ---------------------------------------------
B ---------------------------------------------
G --------------------------------------------- 3x
D ---------------------------------------------
A -10--10-10--10--10-10--8---8--8---7--7—-7--7-
E -8---8--8---7---7--7---6---6--6---5--5--5—-5-
D D U D D U D D U D U D U

e -------------------------------------
B -------------------------------------
G -------------------------------------
D -------------------------------------
A -5-5-5-5--6-6-6-6--9-9-9-9--10101010-
E -3-3-3-3--3-3-3-3--7-7-7-7--8-8-8-8--
D D D D D D D D D D D D D D D D

END ON
e ---
B ---
G -9-
D -9-
A -7-
E ---
D