Alien Ant Farm — Movies

На этой странице Вы можете ознакомиться с 6 версиями подбора аккордов для гитары к песне "Movies" группы (исполнителя) "Alien Ant Farm".

-----------------------------------------------------------------------------
movies- alin ant farm
-----------------------------------------------------------------------------
Tabbed by:counting on me
Email:titofotito86@hotmail.com

Tuning:1/2 down
Intro & verse
be|-------------------------------------------------------------------------|
bB|-------------------------------------------------------------------------|
bG|-9/10-xx-xxxx------------------------------------------------------------|
bD|-9/10-xx-xxxx---8/7-3~---------------------------------------------------|
bA|-7/8--xx-xxxx------------------------------------------------------------|
bE|-------------------------------------------------------------------------|
chorus
e|--------------------------------------------------------------------------|
B|--------------------------------------------------------------------------|
G|--------------------------------------------------------------------------|
D|-8-8888/7-55/8-10-3-5-----------------------------------------------------|
A|-8-8888/7-55/8-10-3-5-----------------------------------------------------|
E|-6-6666/5-33/6-8--1-5-----------------------------------------------------|
Verse
Pre-chorus
e|--------------------------------------------------------------------------|
B|--------------------------------------------------------------------------|
G|---------------------------------------------------------------------------
D|--------------------------------------------------------------------------|
A|-12-12121212-1515-1010101010-1212-77777-1010101010------------------------|
E|-10-10101010-1313-8-8-8-8-8--1010-55555-8-8-8-8-8-------------------------|
Chorus
e|--------------------------------------------------------------------------|
B|--------------------------------------------------------------------------|
G|-----------------------3-2-0----------------------------------------------|
D|-8-8888/7-55/8-10-3-5--------3--------------------------------------------|
A|-8-8888/7-55/8-10-3-5-----------------------------------------------------|
E|-6-6666/5-33/6-8--1-5-----------------------------------------------------|
Interlude
Many times
e|--------------------------------------------------------------------------|
B|--------------------------------------------------------------------------|
G|--------------------------77----------------------------------------------|
D|--7-----------------------77-55-------------------------------------------|
A|--7-----------------------77-55—x3----------------------------------------|
E|--5—----------------------55-55-------------------------------------------|
Pm
Last chorus
e|---------------------------------------------------------------------------
B|--------------------------------------------------------------------------|
G|----------------------3-2-0-----------------------------------------------|
D|-8-8888/7-55/8-10-3-5-------3---------------------------------------------|
A|-8-8888/7-55/8-10-3-5---------5-3-0---------------------------------------|
E|-6-6666/5-33/6-8--1-5---------------1-------------------------------------|
g/------------------------------------------------
d/------------------------------------------------
a/--12//////////22--------------------------------
e/------------------4---22------------------------
b/------------------------------------------------

Bridge
g-----------------------------------------------
d-----------------------------------------------
a--22222222-------------------------------------
e----------22222222----4444444455555555---------
b-----------------------------------------------

g-----------------------------------------------
d-----------------------------------------------
a/--12//////////22------------------------------
e-----------------------------------------------
b-----------------------------------------------

g--------------------------------------------------
d--------------------------------------------------
g--------------------------------------------------
e--6---4---2---0(let ring)-------------------------
b--------------------------------------------------

thatґit guys
ALIEN ANT FARM
Intro/verse 1&2
|--------------------------------------------------|
|--------------------------------------------------|
|--8/9--9--9--x-x-x-x--8/9--9--9--x-x-x-x----------|
|-------------x-x-x-x-------------x-x-x-x----------|
|--6/7--7--7--x-x-x-x--6/7--7--7--x-x-x-x----------|
|-------------x-x-x-x-------------x-x-x-x----------|

|--------------------------------------------------|
|--------------------------------------------------|
|--------------------------------------------------|
|--76----------------------76--------------------|
|--7----7-7-7-7-7-7-7-7-7---7----7-7-7-7-7-7-7-7-7-|
|-------0-0-0-0-0-0-0-0-0--------0-0-0-0-0-0-0-0-0-|

chorus 1
|--------------------------------------------------|
|--------------------------------------------------|
|--8/9--8/9--8/9--8/9--8/9-------------------------|
|-----------------------------7--6--6--6--6--------|
|--6/7--6/7--6/7--6/7--6/7----7--7--7--7--7--------|
|--------------------------------0--0--0--0--------|

|--------------------------------------------------|
|--------------------------------------------------|
|--/11-11-11-11-11-11------------------------------|
|--------------------------------------------------|
|--/-9--9--9--9--9--9------------------------------|
|--------------------------------------------------|

verse 3
|--------------------------------------------------|
|--------------------------------------------------|
|--6-6-6-6-6-6---9-9-9---4-4-4-4-4-4---6-6-6-------|
|--6-6-6-6-6-6---9-9-9---4-4-4-4-4-4---6-6-6-------|
|--4-4-4-4-4-4---7-7-7---2-2-2-2-2-2---4-4-4-------|
|--------------------------------------------------|

|--------------------------------------------------|
|--------------------------------------------------|
|--------------------------------------------------|
|--6-6-6-6-6-6---7-7-7---9-9-9-9-9-9---------------|
|--6-6-6-6-6-6---7-7-7---9-9-9-9-9-9---------------|
|--4-4-4-4-4-4---5-5-5---7-7-7-7-7-7---0-0-0-0-----|

interlude
|----------------------------------------------------------|
|----------------------------------------------------------|
|--6--6--6--6--6--6--6--6---6-6-------6--6--6--6---6-6-----|
|--6--6--6--6--6--6--6--6-------------6--6--6--6-----------|
|--4--4--4--4--4--4--4--4-------4-4---4--4--4--4-------4-4-|
|----------------------------------------------------------|

|----------------------------------------------------------|
|----------------------------------------------------------|
|--6--6--6--6---6--6--------6--6--6--6--6--6---/11-11-11-11|
|--6--6--6--6---6--6--------6--6--6--6--6--6---------------|
|--4--4--4--4--------4--4---4--4--4--4--4--4---/-9--9--9--9|
|--4--4--4--4--------4--4---4--4--4--4--4--4---------------|

chorus 2
|----------------------------------------------------------|
|----------------------------------------------------------|
|----------------------------------------------------------|
|--7-7-7-7-7-7---6-6-6---4-4-4-4-4-4---7-7-7---10-10-10----|
|--7-7-7-7-7-7---6-6-6---4-4-4-4-4-4---7-7-7---10-10-10----|
|--5-5-5-5-5-5---4-4-4---2-2-2-2-2-2---5-5-5----8--8--8----|

|------------------------------|
|------------------------------|
|-----------------/11-11-11-11-|
|--2-2-2-2-2-2-----------------|
|--2-2-2-2-2-2----/-9--9--9--9-|
|--0-0-0-0-0-0-----------------|

little riff
|--5--4--2--/5---|
|--5--5--5---5---|
|----------------|
|----------------|
|----------------|
|----------------|

song order
intro/verse 1&2 (4x's)
chorus (2x's)
intro/verse 1&2 (2x's)
verse 3 (2x's)
chorus 1 (3x's)
little riff (1x)
interlude (1x)
chorus 2 (2x's)
little riff (1x)

---------------------------LYRICS---------------------------
Verse 1
At slow speed we all seem focused.
In motion we seem wrong.
In summer we can taste the rain.

Chorus
I want you to be free
Don't wory about me
And just like the movies
We play out our last scene

Verse 2
Two can play this game
We both want power
In winter we can taste the pain

Verse 3
In our short years, we come long way
To treat it bad and throw away.
In our short years, we come long way
To treat it bad and throw away.

Chorus

You won't cry. I won't scream

Interlude
In our short years we come long way
To treat it bad and throw away
And if we make a little space
A science fiction showcase
In our short-film, a love disgrace
Dream a scene to brighten face
In our short years we come long way
To treat it bad, Just to throw it away

Chorus
g-----------------------------------------------
d-----------------------------------------------
a--12//-----------------------------------------
e-----------------------------------------------

g-----------------------
Title: Movies
Artist: Alien Ant Farm
Tabbed by: Max McNeilly

*=Repeat
^=Palm Mute

Intro

E-------------------------------------|
B-------------------------------------|
G---9*^*^*^*^*^*^*^*^*^*^*^*^*^*^*----|
D---9*^*^*^*^*^*^*^*^*^*^*^*^*^*^*----|
A---7*^*^*^*^*^*^*^*^*^*^*^*^*^*^*----|
E-------------------------------------|

E-------------------------------------|
B-------------------------------------|
G-------------------------------------|
D---7-6---------7-6-------------------|
A---7-7-7-7-7-7-7-7-7-7-7-7-----------|
E-------------------------------------|

Vs


E-------------------------------------|
B-------------------------------------|
G---9***************------------------|
D---9***************------------------|
A---7***************------------------|
E-------------------------------------|

E-------------------------------------|
B-------------------------------------|
G-------------------------------------|
D---7-6---------7-6-------------------|
A---7-7-7-7-7-7-7-7-7-7-7-7-9-9-9-9---|
E-------------------------------------|

Ch 1


E------------------------------------------------|
B------------------------------------------------|
G---9***************-----------------------------|
D---9***************-----------------------------|
A---7***************-11-11-11-11-9-9-9-9-7-7-7-7-|
E------------------------------------------------|

Ch 2

E------------------------------------------------|
B------------------------------------------------|
G------------------------------------------------|
D--7-7-7-7-6-4-4-7-10-2-2-2-2--------------------|
A--7-7-7-7-6-4-4-7-10-2-2-2-2--------------------|
E--5-5-5-5-4-2-2-5--8-0-0-0-0-9-9-9-9------------|

End.
Hi my name is Travis S. and i think this is a great song and im tired of seeing people tab it wrong so i decided to do something about it.  This song is an up-beat rock song and is in normal tuning (E A D B G E).
So here you go, ENJOY!!!

Intro/verse 1&2
|--------------------------------------------------|
|--------------------------------------------------|
|--8/9--9--9--x-x-x-x--8/9--9--9--x-x-x-x----------|
|-------------x-x-x-x-------------x-x-x-x----------|
|--6/7--7--7--x-x-x-x--6/7--7--7--x-x-x-x----------|
|-------------x-x-x-x-------------x-x-x-x----------|

|--------------------------------------------------|
|--------------------------------------------------|
|--------------------------------------------------|
|--76----------------------76--------------------|
|--7----7-7-7-7-7-7-7-7-7---7----7-7-7-7-7-7-7-7-7-|
|-------0-0-0-0-0-0-0-0-0--------0-0-0-0-0-0-0-0-0-|

chorus 1
|--------------------------------------------------|
|--------------------------------------------------|
|--8/9--8/9--8/9--8/9--8/9-------------------------| |-----------------------------7--6--6--6--6--------|
|--6/7--6/7--6/7--6/7--6/7----7--7--7--7--7--------|
|--------------------------------0--0--0--0--------|

|--------------------------------------------------|
|--------------------------------------------------|
|--/11-11-11-11-11-11------------------------------|
|--------------------------------------------------|
|--/-9--9--9--9--9--9------------------------------|
|--------------------------------------------------|

verse 3
|--------------------------------------------------|
|--------------------------------------------------|
|--6-6-6-6-6-6---9-9-9---4-4-4-4-4-4---6-6-6-------|
|--6-6-6-6-6-6---9-9-9---4-4-4-4-4-4---6-6-6-------|
|--4-4-4-4-4-4---7-7-7---2-2-2-2-2-2---4-4-4-------|
|--------------------------------------------------|

|--------------------------------------------------|
|--------------------------------------------------|
|--------------------------------------------------|
|--6-6-6-6-6-6---7-7-7---9-9-9-9-9-9---------------|
|--6-6-6-6-6-6---7-7-7---9-9-9-9-9-9---------------|
|--4-4-4-4-4-4---5-5-5---7-7-7-7-7-7---0-0-0-0-----|

interlude
|----------------------------------------------------------|
|----------------------------------------------------------|
|--6--6--6--6--6--6--6--6---6-6-------6--6--6--6---6-6-----|
|--6--6--6--6--6--6--6--6-------------6--6--6--6-----------|
|--4--4--4--4--4--4--4--4-------4-4---4--4--4--4-------4-4-|
|----------------------------------------------------------|

|----------------------------------------------------------|
|----------------------------------------------------------|
|--6--6--6--6---6--6--------6--6--6--6--6--6---/11-11-11-11|
|--6--6--6--6---6--6--------6--6--6--6--6--6---------------|
|--4--4--4--4--------4--4---4--4--4--4--4--4---/-9--9--9--9|
|--4--4--4--4--------4--4---4--4--4--4--4--4---------------|

chorus 2
|----------------------------------------------------------|
|----------------------------------------------------------|
|----------------------------------------------------------|
|--7-7-7-7-7-7---6-6-6---4-4-4-4-4-4---7-7-7---10-10-10----|
|--7-7-7-7-7-7---6-6-6---4-4-4-4-4-4---7-7-7---10-10-10----|
|--5-5-5-5-5-5---4-4-4---2-2-2-2-2-2---5-5-5----8--8--8----|

|------------------------------|
|------------------------------|
|-----------------/11-11-11-11-|
|--2-2-2-2-2-2-----------------|
|--2-2-2-2-2-2----/-9--9--9--9-|
|--0-0-0-0-0-0-----------------|

little riff
|--5--4--2--/5---|
|--5--5--5---5---|
|----------------|
|----------------|
|----------------|
|----------------|

song order
intro/verse 1&2 (4x's)
chorus (2x's)
intro/verse 1&2 (2x's)
verse 3 (2x's)
chorus 1 (3x's)
little riff (1x)
interlude (1x)
chorus 2 (2x's)
little riff (1x)

---------------------------LYRICS---------------------------
Verse 1
At slow speed we all seem focused.
In motion we seem wrong.
In summer we can taste the rain.

Chorus
I want you to be free
Don't wory about me
And just like the movies
We play out our last scene

Verse 2
Two can play this game
We both want power
In winter we can taste the pain

Verse 3
In our short years, we come long way
To treat it bad and throw away.
In our short years, we come long way
To treat it bad and throw away.

Chorus

You won't cry. I won't scream

Interlude
In our short years we come long way
To treat it bad and throw away
And if we make a little space
A science fiction showcase
In our short-film, a love disgrace
Dream a scene to brighten face
In our short years we come long way
To treat it bad, Just to throw it away

Chorus