Alien Ant Farm — Smooth Criminal

На этой странице Вы можете ознакомиться с 8 версиями подбора аккордов для гитары к песне "Smooth Criminal" группы (исполнителя) "Alien Ant Farm".

Hey my name is Travis S. and here is how the song really goes, ok!!! I play this song in D tuning because I think its easier. (DADGBE)

intro/verse
|----------------------------------------------------------|
|----------------------------------------------------------|
|----------------------------------------------------------|
|-7-7-7-7--5--7--9-9--7--9--10-10---10-10--9--5--7---------|
|-7-7-7-7--5--7--9-9--7--9--10-10---10-10--9--5--7---------|
|-7-7-7-7--5--7--9-9--7--9--10-10---10-10--9--5--7---------|

prechorus
|----------------------------------------------------------|
|----------------------------------------------------------|
|----------------------------------------------------------|
|-3-3-3-3--5--3-3-3-3--5--3-3-3-3--5--3-3-3-2-2--5--2--5-7-|
|-3-3-3-3--5--3-3-3-3--5--3-3-3-3--5--3-3-3-2-2--5--2--5-7-|
|-3-3-3-3--5--3-3-3-3--5--3-3-3-3--5--3-3-3-2-2--5--2--5-7-|

chorus: Anie u okay? wont u tell us that your okay.....
|----------------------------------------------------------|
|----------------------------------------------------------|
|----------------------------------------------------------|
|-7-7-7-7-7---5-5-5-5---3-3-3-3-3--5--2--5--7--------------|
|-7-7-7-7-7---5-5-5-5---3-3-3-3-3--5--2--5--7--------------|
|-7-7-7-7-7---5-5-5-5---3-3-3-3-3--5--2--5--7--------------|

post chorus: 2 chorus ending:you've been hit by you've..
|----------------||----------------------------------------|
|----------------||----------------------------------------|
|----------------||----------------------------------------|
|-3-3-3-3-3--5---||--2-------------2-2--------------2------|
|-3-3-3-3-3--5---||--2-------------2-2--------------2------|
|-3-3-3-3-3--5---||--2-------------2-2--------------2------|


pre-solo: hold this out before u scrape the strings into the solo
|----------------------------------------------------------|
|------------------------10--------------------------------|
|-------------------------9--------------------------------|
|-------------------------7--------------------------------|
|-------------------------7--------------------------------|
|-------------------------7--------------------------------|

solo
|----------------------------------------------------------|
|-1--0-----0-----------------------------------------------|
|-------2-----2--0-----1/2-2-2--1/2-2-2--------------------|
|-------------------2--------------------------------------|
|----------------------------------------------------------|
|----------------------------------------------------------|

song order
intro/verse 8x
prechorus 1x
chorus 4x
prechorus 1x
chorus ending 1x
intro/verse 4x
prechorus 1x
chorus 4x
post-chorus 1x
chorus ending 1x
intro/verse 2x
pre-solo 1x
solo 8x
chorus 8x
intro/verse 4x
Tabbed by Salvager
Alien ant farm


G:---------------------------------------
D:---------------------------------------
A:0-0-0-0---0-h2-2-2x-h3-3-3---3-2------0
E:--------3------------------------3-----


G:---------------------------------------------
D:----------------3----------------3-----------
A:-----------------------------------2-2-------
E:1----1-1--1------------1-1--1------------3--1


....Annie are you ok......


G:----------------------------------------------
D:----------------------------------------------
A:----------------------------------------------
E:5555-33--3322--22--1-0-1-3--------------------
........annie are you ok can you tell us that you're ok.....


while the guitar solo is gone on you just play the main riff


G:---------------------------------------
D:---------------------------------------
A:0-0-0-0---0-h2-2-2x-h3-3-3---3-2------0
E:--------3------------------------3-----

then go through the rest like it is

theres a part where the notes go down near the end that only this

G:---------------------------------------
D:---------------------------------------
A:0-0-0-0--------------------------------
E:--------33--33-22-1-0-1-3--------------


I realy hate this song BUT it has a pretty sweet bass in it Enjoy =)
Alien Ant Farm
Smooth Criminal

Tabbed By Gee
HommieGee@rockonpeople.zzn.com
http://communities.ninemsn.com.au/rockonpeople

Intro
G|--------------------------------|
D|--------------------------------|
A|--------------------------------|
E|5-5---537-7---758-8---887-3-7-3-|

(After 3 go straight to 5 without a rest)
Repeated
############################################################################
# Smooth Criminal by Alient Ant Farm
# Send questions/comments to dan19ch@hotmail.com
# Tabbed by Dan Young Copyright 2001

(palm muted)
verse
e-------------------------------------------------
B-------------------------------------------------
G-------------------------------------------------
D------7-7-7-7-7-7-9-9---9-9-10-10---10-10-9-5--7-
A------7-7-7-7-7-7-9-9---9-9-10-10---10-10-9-5--7-
E------5-5-5-5-5-5-7-7---7-7--8--8----8--8-7-3--5-
A5 B5 C5 G5

chorus-part1 (no p.m.) [Annie are you okay..you okay..etc]
(play this over and over with appropriate pauses...listen to the song)
e-----
B-----
G-----
D--3--
A--3--
E--1--
F5

bridge into chorus-part2
On the fourth time through the above chorus(after the third pause) play this
e------------------------------------
B------------------------------------
G------------------------------------
D---3-3-3-3-3-3-3-3-2-2-2-2-2-2-5--7-
A---3-3-3-3-3-3-3-3-2-2-2-2-2-2-5--7-
E---1-1-1-1-1-1-1-1-0-0-0-0-0-0-3--5-
F5 E5 G5 A5

chorus part2 [Annie are you okay, Would you tell us...]
e-------------------------------------------
B-------------------------------------------
G-------------------------------------------
D---7-7-7-7-7-7-5-5---5-5-3-3---3-3-2-2-5-7-
A---7-7-7-7-7-7-5-5---5-5-3-3---3-3-2-2-5-7-
E---5-5-5-5-5-5-3-3---3-3-1-1---1-1-0-0-3-5-
A5 G5 F5 E5

Now do chorus-part1 before starting over with verse.
g
This is the lead guitar solo for Smooth Criminal on Six String Guitar.

e-mail me at parispooch@hotmail.com

h=hammer down
-----------------------------------
-----------------------------------
-----------------------------------
-----------------------------------
---10-9-9-7-h9-7-5-7---------------
-----------------------------------
Play this one ^ 3 times.

then play the fourth one like this
-----------------------------------
-----------------------------------
-----------------------------------
-----------------------------------
---10-9-9-7-h9-5-------------------
-----------------------------------
Наращивающая обороты альтернативная группа сотворила ремикс Миши Джексона

^ = upstroke(Не знаю как по нашински)

PM.......................}
e-------------------------------------------------------------|
B-------------------------------------------------------------|
G-------------------------------------------------------------|
D-------------------------------------------------------------|
A-------------------------------------------------------------|
E|---0-2-0044--0055--0044-7-0---------------------------------------------|
^ ^ ^ ^

e-------------------------------------------------------------|
B-------------------------------------------------------------|
G-------------------------------------------------------------|
D|-----4---66----77----66-9-----------------------------------------------|
A|-----4---66----77----66-9-----------------------------------------------|
E|---0-2-0044--0055--0044-7-0---------------------------------------------|
^ ^ ^ ^
Играется быстро. Самое сложно - попадать в ноту в нужное время,
надо слушать саму песню.

===============================================================================
alien ant farm,smooth crimal.
Tabbed by zack,www.motoxer1212@aol.com.

THIS IS THE RIGHT WAY TO PLAY SMOOTH CRIMAL THIS IS SRAIGHT OUT OF THE BOOK!

e|---------------------------------------------------|
b|---------------------------------------------------|
g|---------------------------------------------------|
c|7---7---7-7-9-9---9-9-10-10---10-10-10-9-5-7-------|
a|7---7---7-7-9-9---9-9-10-10---10-10-10-9-5-7-------|
e|5---5---5-5-7-7---7-7-8--8----8--8--8--7-3-5-------|
:: Ultimate Guitar Archive ::
http://www.ultimate-guitar.com
Smooth Criminal tab:
This is my first tab so it may have a few mistakes

Intro/Chorus 1
e|---------------------------------------------
b|---------------------------------------------
g|---------------------------------------------
d|--7--7-7-7-7-5-7--9-9--7-9--10-10--10-10--9-5
a|--7--7-7-7-7-5-7--9-9--7-9--10-10--10-10--9-5 x8
e|--5--5-5-5-5-3-5--7-7--5-7--8--8---8--8---7-3
As he came into the window.... Was a sound of a crescendo

Chorus 2
e|---------------------------------------------
b|---------------------------------------------
g|---------------------------------------------
d|--3----5-5------------------3----2-2--5-2-5-7 (This may
a|--3----5-5--3x---on 4th-----3----2-2--5-2-5-7 Be bass
e|--1----3-3------------------1----0-0--3-0-3-5 only)
Annie are u ok are u ok are u ok annie.....


Verse part 1
e|---------------------------------------------
b|---------------------------------------------
g|---------------------------------------------
d|--7-7-7-7-7-7--5-5--5-5--3-3--3-3--5--3--5--7
a|--7-7-7-7-7-7--5-5--5-5--3-3--3-3--5--3--5--7
e|--5-5-5-5-5-5--3-3--3-3--1-1--1-1--3--1--3--5
---Annie, are you OK, Will you tell us that you're OK

Verse Part 2
e|---------------------------------------------
b|---------------------------------------------
g|---------------------------------------------
d|--7-7-7-7-7-7--5-5--5-5--3-3--3-3--0----5--7-
a|--7-7-7-7-7-7--5-5--5-5--3-3--3-3--0----5--7-
e|--5-5-5-5-5-5--3-3--3-3--1-1--1-1--2----3--5-
There's a sign at the window, That he struck you, A crescendo, Annie

Interlude (?)
e|---------------------------------------------
b|---------------------------------------------
g|---------------------------------------------
d|--2------------------2-2-------------------2-
a|--2------------------2-2-------------------2-
e|--0------------------0-0-------------------0-
You've been hit by, u've been struck by, a smooth criminal

Song Progression:

Intro/Chorus 1 x8
Chorus 2
Verse Part 1 1x
Verse Part 2 1x
Verse Part 1 1x
Verse Part 2 1x
Chorus 2
Interlude
Intro/Chorus x4
Chorus 2
Verse Part 1 1x
Verse Part 2 1x
Verse Part 1 1x
Verse Part 2 1x
Chorus 2 first part x1
Interlude
Intro/chorus 1 2x (base keeps doing it)
Then this Chord using wammy stick and i think just sliding it up:
e|---
b|---
g|---
c|---
d|--7
a|--7
e|--5

Then Solo:
e|------------------------------------------------
b|------------------------------------------------
g|------------------------------------------------
c|--7-10-9-7-9-7-------6s7-7-7-7-7-7------8x fast its not
d|---------------10-7----------------------------- hard,
a|------------------------------------------------ just fast
e|------------------------------------------------

Verse Part 1
Verse Part 2
Verse Part 1
Verse Part 2
Verse Part 1
Verse Part 2
Verse Part 1
Verse Part 2
Intro/verse 2x
Then outro, which is

e|-------------------------------------------|
b|-------------------------------------------|
g|-------------------------------------------|
d|--7--7-7-7-7-5-5--5-5--3-3--3-2-2-5-7------|
a|--7--7-7-7-7-5-5--5-5--3-3--3-2-2-5-7------|
e|--5--5-5-5-5-3-3--3-3--1-1--1-0-2-3-5------|

e|--------------------------------------------|
b|--------------------------------------------|
g|--------------------------------------------|
d|--7--7-7-7-7-5-7--9-9--7-9--10-10--10-10--9-|
a|--7--7-7-7-7-5-7--9-9--7-9--10-10--10-10--9-|
e|--5--5-5-5-5-3-5--7-7--5-7--8--8---8--8---7-|

And thats it!! Sorry that it is so confusing. If u have the song its easier to follow. Just
Follow my labels and i think you should be ok.

-Jeremy Coles

(P.S. I noticed in one of the other tabs that came straight from the book showed that the intro
didnt go down again before going up. This is probably correct because it might just be the bass
guitar that goes back down. but if u are just playing the song alone then it sounds better this way.)
Hope u find this useful. Give me some comments cuz like i said this is my first one.