Alien Ant Farm — Smooth Criminal (ver 9)

I am positive that this is right..check it out. This tab kicks ass if u  play  right.


1|--------------------------------------| Repeat 4x for
2|--------------------------------------| verse
3|-2----------------------------------2-|
4|-2----------------------------------2-|
5|-0--0-0-0-0--0-2-2--0-2-3-3--3-3-2--0-|
6|------------3--------------------3----|



1|------------------------------------------------|Chorus
2|------------------------------------------------|
3|------------------------------------------------|
4|------------------------------3----3----3-5-5-3-|
5|-0-0-0-0--0-2-2--3-3--3-3-2---3----3----3-5-5-1-|
6|---------3------------------3-1----1----1-3-3-1-|

1|---------------------------------------| Last Verse
2|---------------------------------------|
3|---------------------------------------|
4|---------------------------------------|
5|-0-0-0-0-0-0-------------------------0-|
6|-------------3-3--3-3-1-1--1-1-3-0-3---|


Thats it! Well I hope u have fun with this. I assure you that this TAB is correct. I'm gonna bounce now. Cya.

~NicK~