Alien Ant Farm — These Days

Artist- Alien Ant Farm
Song- These Days
Tuning- Normal
Tabber- Iconoclast


Intro/Bridge (2x)
---------------------------------------------------
---------------------------------------------------
-4-4-4-4--4-4-4-4--4-6--7-7-7-7--7-7-7-7--7-9------
-4-4-4-4--4-4-4-4--4-6--7-7-7-7--7-7-7-7--7-9------
-2-2-2-2--2-2-2-2--2-4--5-5-5-5--5-5-5-5--5-7------
---------------------------------------------------

Verse
---------------------------------------------------
---------------------------------------------------
---------------------------------------------------
-4---4----4---4----4----4---4----4---4----4--------
-4p2-4p2--4p2-4p2--4p2--4p2-4p2--4p2-4p2--4p2------
-2---2----2---2----2----2---2----2---2----2--------

-----------------------------------------------------------------
-----------------------------------------------------------------
-7---7----7---7----7-----4---4----4---4----4-----5-5-5-5-5-5-5---
-7p6-7p6--7p6-7p6--7p6---4p2-4p2--4p2-4p2--4p2---4-4-4-4-4-4-4---
-5---5----5---5----5-----2---2----2---2----2-----3-3-3-3-3-3-3---
-----------------------------------------------------------------

---------------------------------------------------
---------------------------------------------------
---------------------------------------------------
-4---4----4---4----4----4---4----4---4----4--------
-4p2-4p2--4p2-4p2--4p2--4p2-4p2--4p2-4p2--4p2------
-2---2----2---2----2----2---2----2---2----2--------

---------------------------------------------------
---------------------------------------------------
-7---7----7---7----7-----4---4----6--7-7-7-7-9-----
-7p6-7p6--7p6-7p6--7p6---4p2-4p2--6--7-7-7-7-9-----
-5---5----5---5----5-----2---2----4--5-5-5-5-7-----
----------------------------------4--5-5-5-5-7-----------

Chorus (2x)
-------------------------------------------------------
-------------------------------------------------------
-------------------------------------------------------
-7-7-7-7--7-7-7-7--6-6-6-7-4-4-4-4--4-4-4-4--6-6-6-7---
-7-7-7-7--7-7-7-7--6-6-6-7-4-4-4-4--4-4-4-4--6-6-6-7---
-5-5-5-5--5-5-5-5--4-4-4-5-2-2-2-2--2-2-2-2--4-4-4-5---

---------------------------------------------------
---------------------------------------------------
---------------------5-5---------------------------
-3-3-3-3--3-3-3-3--3-5-5--7-7-7-7--7-7-7-7--7-3----
-3-3-3-3--3-3-3-3--3-3-3--7-7-7-7--7-7-7-7--7-3----
-1-1-1-1--1-1-1-1--1-3-3--5-5-5-5--5-5-5-5--5-1----

Verse

Chorus (2x)

Intro/Bridge (repeat as necessary)

Chorus (4x)