Alien Ant Farm — Universe

На этой странице Вы можете ознакомиться с 3 версиями подбора аккордов для гитары к песне "Universe" группы (исполнителя) "Alien Ant Farm".

Song: Universe 
Artist: Alien Ant Farm
Album: ANThology
Author: Rico (i_enjoy_incubus@hotmail.com)


Hey, I'm only 15 and this is the first tab i've put out. I think
it's pretty accurate, so try it, and if it's not, get off my back!
this isn't my job, man!

Intro/Verse
e|------------------------------------
B|------------------------------------
G|------------------------------------
D|---------------------------66666666-
A|-333333333-222222222222222-00000000-
E|-555555555-444444444444444-00000000-
we should have waited...


Intro 2/Chorus
e|--------------------------------
B|--------------------------------
G|----/9-4------------------------
D|-3--/9-4-5-3-2222222-4-66666767-
A|-3--/7-2-5-3-2222222-4-66666767-
E|-1-------3-1-0000000-2-44444545-
we love to break the season


Bridge to Chorus
(yes, the first power chord is broken up a bit
listen carefully to hear the rhythm and place ment of the chords and notes.)
e|-----------------------------------------
B|-----------------------------------------
G|-----------------------------------------
D|---3-----33---3-----33-2-22-222-2-22-222-
A|-3---3-3----3---3-3----2-22-222-2-22-222-
E|-1---1-1----1---1-1----0-00-000-4-44-444-
Waiting? I Know...


Interlude/Breakdown
e|-----------------------------------
B|-----------------------------------
G|-----------------------------------
D|-33333333-55555555-7--7-9-11-9-7-5-
A|-33333333-55555555-7--7-9-11-9-7-5-
E|-11111111-33333333-5--5-7- 9-7-5-3-
See! And we don't mind...Are you ashamed...etc.


Solo
e|------------------------------
B|------------------------------
G|-10---9-7----6-9--------------
D|--------------------9-10-9-10-
A|------------------------------
E|------------------------------
== = = = = ( = means tremolo pick)
Alien Ant Farm
Universe (track 13)
ANThology

This is just the ending, (if you have the ANThology album).

g|----------------------|
d|----------------------|
a|----------------------|
e|--5-6--5-6--5-3--3-2--|

That's it, remember this is the ANThology album only.
This part starts at around 6:25 on the track.

Any questions to do with the tablature e-mail me at michaelbryant2003@hotmail.com
and i will get back to you as soon as possible
Song: Universe
Band name: alien ant farm
tabbed by: fretboard88
(Drop D)
this song is a fairly easy song, except for the strumming riff

Main Riff:
e|-----------------------------------------------------------------------|
B|-----------------------------------------------------------------------|
G|-----------------------------------------------------------------------|
D|-3-3-3-3-3-3-3-3--3-2-2-2-2-2-2-2--2-2-2-2-2-2-2-2--6-6-6-6-6-6-6-6----|
A|-3-3-3-3-3-3-3-3--3-2-2-2-2-2-2-2--2-2-2-2-2-2-2-2--6-6-6-6-6-6-6-6----|
D|-3-3-3-3-3-3-3-3--3-2-2-2-2-2-2-2--2-2-2-2-2-2-2-2--6-6-6-6-6-6-6-6----|

2nd Guitar solo
e|---------------------------|
B|-----1-----2-----2-----3---|
G|---2-----1-----1-----1-----|
D|-3-----2-----2-----2-------|
A|---------------------------|
D|---------------------------|

Chorus
e|------------------------------------------------|
B|------------------------------------------------|
G|------------------------------------------------|
D|-3-15-14-9--2-2-2-2-2-2-2-4--6-6-6-6-6-7-6-7----|
A|-3-15-14-9--2-2-2-2-2-2-2-4--6-6-6-6-6-7-6-7----|
D|-3-15-14-9--2-2-2-2-2-2-2-4--6-6-6-6-6-7-6-7----|

Pre-chorus
e|---------------------------------------------------------------------|
B|---------------------------------------------------------------------|
G|---------------------------------------------------------------------|
D|-----3-3-----3-3----3-3-----3-3--2-2-2-2-2-2-2-2--6-6-6-6-6-7-6-7----|
A|---------------------------------2-2-2-2-2-2-2-2--6-6-6-6-6-7-6-7----|
D|-3-3-----3-3-----3-3----3-3------2-2-2-2-2-2-2-2--6-6-6-6-6-7-6-7----|

Riff 1
e|-------------------------------------------------|
B|-------------------------------------------------|
G|-------------------------------------------------|
D|-3-3-3-3-3-3-3-3--5-5-5-5-5-5-5-5--7-9-11-9-7----|
A|-3-3-3-3-3-3-3-3--5-5-5-5-5-5-5-5--7-9-11-9-7----|
D|-3-3-3-3-3-3-3-3--5-5-5-5-5-5-5-5--7-9-11-9-7----|

Riff 2
e|-----------------------------------------------------|
B|-----------------------------------------------------|
G|-----------------------------------------------------|
D|-3-3-3-3-3-3-3-3--5-5-5-5-5-5-5-5--7-7-7--7-7-7-5----|
A|-3-3-3-3-3-3-3-3--5-5-5-5-5-5-5-5--7-7-7--7-7-7-5----|
D|-3-3-3-3-3-3-3-3--5-5-5-5-5-5-5-5--7-7-7--7-7-7-5----|

Riff 3
e|------------------------------------|
B|------------------------------------|
G|------------------------------------|
D|-3-3-3-3-3-3-3-3--5-5-5-5-x-x-x-x---|
A|-3-3-3-3-3-3-3-3--5-5-5-5-x-x-x-x---|
D|-3-3-3-3-3-3-3-3--5-5-5-5-x-x-x-x---|

Strumming Riff (dist)
e|-1-1-1-1-1-1-1-1-1-1-1-1-0-0-0-0---------------------------------------|
B|----------------------------------3-3-3-3-3-3-3-3-3-3-3-3-3-3-3-3-1----|
G|-----------------------------------------------------------------------|
D|-----------------------------------------------------------------------|
A|-----------------------------------------------------------------------|
D|-----------------------------------------------------------------------|

Strumming Riff (dist) (cont.)
e|---------0-0-0-0-0-0-0-0-0-0-0-0--0-0-0-0-0-0-0-0------------|
B|-2-2-2-2------------------------------------------0-1-0-1----|
G|-------------------------------------------------------------|
D|-------------------------------------------------------------|
A|-------------------------------------------------------------|
D|-------------------------------------------------------------|
Riff 4

e|--------------------------------------------------------------------|
B|--------------------------------------------------------------------|
G|--------------------------------------------------------------------|
D|-3-3-3-3-3-3-3-3--3-3-3-3-3-3-3-3--2-2-2-2-2-2-2-2--2-2-2-2-2-2-2-2-|
A|-3-3-3-3-3-3-3-3--3-3-3-3-3-3-3-3--2-2-2-2-2-2-2-2--2-2-2-2-2-2-2-2-|
D|-3-3-3-3-3-3-3-3--3-3-3-3-3-3-3-3--2-2-2-2-2-2-2-2--2-2-2-2-2-2-2-2-|

Outro
e|---------------------------|
B|---------------------------|
G|---------------------------|
D|-3-15-14-9--2--------------|
A|-3-15-14-9--2-(fade away)--|
D|-3-15-14-9--2--------------|

| x Mute note

Main riff x4 (2-3 time, guitar 2 solo plays)
Chorus x2
main riff x4 (pre-verse 1-2, verse 3-4)
Pre-chorus x2
chorus x2
main riff x4 (pre-verse 1-2, verse 3-4)
pre-chorus x2
chorus x4 (slow down 4th time)
riff 1x2
riff 2
riff 3
main riff
guitar 2 solo (-last measure, last measure all messed up)
strumming riff x2
riff 4 x2
chorus x2
outro

that is basically it. this is my first tab so dont get
too mad if its wrong. there are lots of sound effects
and i didnt add them. i know that a guitarist plays
the g string by accident in the end and i didnt add that.
the main riff's last measure might be played like the last
measure of the chorus, either way works. i put the
strumming riff in 2 parts to save space, its all the
same

===============================================================================