Alien Ant Farm — Whisper

Song: Whisper by Alien Ant Farm on their ANThology album
Tabbed by: Ryan Aschenbrener
Tuning: Drop Db (DbAbDbGbBbEb)

Intro

Eb--------------------------------------------------------------------
Bb--------------------------------------------------------------------
Gb--------------------------------------------------------------------
Db-7-7-7--7-7-7-7-7-7-7--7-7-7-7-7-7-7--7-7-7-7-7-10-10-10-7-15-15-15-
Ab-7-7-7--7-7-7-7-7-7-7--7-7-7-7-7-7-7--7-7-7-7-7-10-10-10-7-15-15-15-
Db-7-7-7--7-7-7-7-7-7-7--7-7-7-7-7-7-7--7-7-7-7-7-10-10-10-7-15-15-15-

Verse Version 1

Eb--------------------------------------------------------------------------
Bb--------------------------------------------------------------------------
Gb--------------------------------------------------------------------------
Db-676-6666666-6666-676-666663333111-676-6666666-6666-678-88888-10-10-10-10-
Ab-676-6666666-6666-676-666663333111-676-6666666-6666-678-88888-10-10-10-10-
Db-676-6666666-6666-676-666663333111-676-6666666-6666-678-88888-10-10-10-10-
(M U T E) ^ (M U T E) ^ (M U T E) ^ (M U T E)
dont mute dont mute dont mute

Verse Version 2 is the same as i but you don't mute anything

Chorus

Eb--------------------------------------------------------------------------
Bb--------------------------------------------------------------------------
Gb--------------------------------------------------------------------------
Db---------------------------------------33333333-0000-3333--77--77--77--77-
Ab-8888888-4444-8888-7777-4444-0000-3333-33333333-0000-3333--77--77--77--77-
Db---------------------------------------33333333-0000-3333--77--77--77--77-

Eb------------------------------------------------------------------------
Bb------------------------------------------------------------------------
Gb------------------------------------------------------------------------
Db---------------------------------------33333333-0000-3333-7-7-7-7-7-7-7-
Ab-8888888-4444-8888-7777-4444-0000-3333-33333333-0000-3333-7-7-7-7-7-7-7-
Db---------------------------------------33333333-0000-3333-7-7-7-7-7-7-7-

Verse Version 2, then 1

Chorus

Bridge

Eb----------------------------------------------------------------
Bb----------------------------------------------------------------
Gb----------------------------------------------------------------
Db-7-7-7-7-7-7-7----6-6-6-6-6-6-4-4-4-4-4-2-2-2-2-2-2-1-1-1-1-1-1-
Ab-7-7-7-7-7-7-7----6-6-6-6-6-6-4-4-4-4-4-2-2-2-2-2-2-1-1-1-1-1-1-
Db-7-7-7-7-7-7-7----6-6-6-6-6-6-4-4-4-4-4-2-2-2-2-2-2-1-1-1-1-1-1-

Eb---------------------------------
Bb---------------------------------
Gb---------------------------------
Db-5-5-5-5-5-5-5-5-5-5-5-5-4-4-4-4-
Ab---------------------------------
Db---------------------------------