Alien Ant Farm — Wish

На этой странице Вы можете ознакомиться с 2 версиями подбора аккордов для гитары к песне "Wish" группы (исполнителя) "Alien Ant Farm".

-------------------------------------------------------------------------------
Wish - Alien Ant Farm

-------------------------------------------------------------------------------
I tabbed this cause no one on the site or any site i've been on yet has gotten it right.
I didn't tab the exact picking pattern or the timing u can figuer it out just listen to
the CD. I may have missed a couple of transfer chords at the end of some verses but oh
well. I kno this is right except the intro maybe off like 1 note but i challenge anyone
to find a mistake other than that.


Tabbed by:Riot Mentality Rules!!!!
Email:

Tuning:Drop D
(Riff A)
e|--------------------------------------------------------------------------
B|--------------------------------------------------------------------------
G|--------------------------------------------------------------------------
D|-------4--------4---------------------------------------------------------
A|----4-------4-----------5------4---7-------2------------------------------
E|-4-------4-----------------5------------4---------------------------------
(Riff b)just listen to the cd to follow the picking patterns
e|--------------------------------------------------------------------------
B|--------------------------------repeat-x2---------------------------------
G|-------------------------------------------------12>----------------------
D|-4>-----------0>----------2>----------------------------------------------
A|-4>-----------0>----------2>---------------------10>----------------------
E|-4>-----------0>----------2>----------------------------------------------
(Riff c)Don't be...
e|--------------------------------------------------------------------------
B|--------------------------------------------------------------------------
G|--------------------------------------------------------------------------
D|---4>--------0>--------7-7-5-5----4>---------5>---------7-7-5-5-----------
A|---4>--------0>--------7-7-5-5----4>---------5>---------7-7-5-5-----------
E|---4>--------0>--------7-7-5-5----4>---------5>---------7-7-5-5------
(Riff d)This is a little variation he does right before the next verse
e|--------------------------------------------------------------------------
B|--------------------------------------------------------------------------
G|--------------------------------------------------------------------------
D|--4-4-4--0--0--5-5-5--0--0--7-7-5-5---------------------------------------
A|--4-4-4--0--0--5-5-5--0--0--7-7-5-5---------------------------------------
E|--4-4-4--0--0--5-5-5--0--0--7-7-5-5---------------------------------------
(Riff e)Chimes used to break my wish
e|--------------------------------------------------------------------------
B|--------------------------------------------------------------------------
G|--------------------------------------------------------------------------
D|--77-4----55-0------------------------------------------------------------
A|--77-4----55-0------------------------------------------------------------
E|--77-4----55-0------------------------------------------------------------
(Riff f)Pain won't you bring him back...
e|--------------------------------------------------------------------------
B|--------------------------------------------------------------------------
G|--------------------------------------------------------------------------
D|---7-5--7-5--0----------------------------------------------------------
A|---7-5--7-5--0----------------------------------------------------------
E|---7-5--7-5--0----------------------------------------------------------


Order

RiffA
RiffB
RiffA
RiffB
RiffA
RiffC
RiffD
RiffF
RiffC
RiffF
SONG:   Wish
ARTIST: Alien Ant Farm
ALBUM: ANThology

Key
Arrangement: 1 guitar
Tuning: Standard (E,A,D,G,B,E)
PM. . . = mute
(#) = harmonics

INTRO

(distorted, blend notes)
E|-----------------------------------|
B|-----------------------------------|
G|---—------—-----—------—-—---------|
D|------4-----4----------------------|
A|---—4-----4-----5-—---3--—-4-----2-|
E|--2-----2----------3----------2----|


VERSE

(distorted, heavy palm muting,)
E|----------------------------------|----------------------------------|
B|----------------------------------|----------------------------------|
G|----------------------------------|----------------------------------|
D|----------------------------------|----------------------------------|
A|--4-4-4-4-4-4-4-4-4-4-4-4-4-4-4-4-|--3-3-3-3-3-3-3-3-3-3-3-3-3-3-3-3-|
E|--2-2-2-2-2-2-2-2-2-2-2-2-2-2-2-2-|--3-3-3-3-3-3-3-3-3-3-3-3-3-3-3-3-|
PM. . . . . . . . . . . . . . . . . . . . . . . . . . . . . . . .

E|----------------------------------|-----------------------------------|
B|----------------------------------|-----------------------(2-2-2-3-2)-|
G|----------------------------------|-----------------------------------|
D|--4-------------------------------|-----------------------------------|
A|--4-4-4-4-4-4-4-4-4-4-4-4-4-4-4-4-|--3-3-3-3-3-3-3-3-3-3-3-3-3-3-3-3--|
E|--2-2-2-2-2-2-2-2-2-2-2-2-2-2-2-2-|--3-3-3-3-3-3-3-3-3-3-3-3-3-3-3-3--|
PM. . . . . . . . . . . . . . . . . . . . . . . . . . . . . . . .

E|----------------------------------|----------------------------------|
B|----------------------------------|----------------------------------|
G|----------------------------------|----------------------------------|
D|----------------------------------|----------------------------------|
A|--4-4-4-4-4-4-4-4-4-4-4-4-4-4-4-4-|--3-3-3-3-3-3-3-3-3-3-3-3-3-3-3-3-|
E|--2-2-2-2-2-2-2-2-2-2-2-2-2-2-2-2-|--3-3-3-3-3-3-3-3-3-3-3-3-3-3-3-3-|
PM. . . . . . . . . . . . . . . . . . . . . . . . . . . . . . . .

E|----------------------------------|----------------------------------|
B|----------------------------------|----------------------------------|
G|----------------------------------|----------------------------------|
D|--4-------------------------------|------------------3-3-3-3-3-3-3-3-|
A|--4-4-4-4-4-4-4-4-4-4-4-4-4-4-4-4-|--3-3-3-3-3-3-3-3-3-3-3-3-3-3-3-3-|
E|--2-2-2-2-2-2-2-2-2-2-2-2-2-2-2-2-|--3-3-3-3-3-3-3-3-3-3-3-3-3-3-3-3-|
PM. . . . . . . . . . . . . . . . . . . . . . . .


PRE-VERSE PRE-CHORUS

(distorted, blend notes) (distorted, blend notes)
E|---------------------------------| |----------------------------------------|
B|---------------------------------| |----------------------------------------|
G|---—------—----—------—-—--------| |--------------------------------8-8-8-8-|
D|------4-----4--------------------| |------4-----4---------------------------|
A|---—4-----4---5-—---3--—-4-----2-| |----4-----4----5-----3----4-----6-6-6-6-|
E|--2-----2--------3----------2----| |--2-----2---------3----------2----------|



CHORUS

(distorted, play 3 times)
E|-------------------------------------------------------------------------|
B|-------------------------------------------------------------------------|
G|-------------------------------------------------------------------------|
D|--4-4-4-4-4-4--2-2-2-2-2-2--7-7--5-5--4-4-4-4-4-4--2--5-5-5-5--7-7--5-5--|
A|--4-4-4-4-4-4--2-2-2-2-2-2--7-7--5-5--4-4-4-4-4-4--2--5-5-5-5--7-7--5-5--|
E|--2-2-2-2-2-2--0-0-0-0-0-0--5-5--3-3--2-2-2-2-2-2--0--3-3-3-3--5-5--3-3--|

(distorted)
E|-------------------------------------------------------------|
B|-------------------------------------------------------------|
G|-------------------------------------------------------------|
D|--4-4-4-4-4-4-2-2-2-2-2-2--7-7--5-5--4-4-2-2-5-5-2-2-7-7-5-5-|
A|--4-4-4-4-4-4-2-2-2-2-2-2--7-7--5-5--4-4-2-2-5-5-2-2-7-7-5-5-|
E|--2-2-2-2-2-2-0-0-0-0-0-0--5-5--3-3--2-2-0-0-3-3-0-0-5-5-3-3-|

BRIDGE BRIDGE 2

(distorted, heavy muting) (distorted)
E|------------------| |--------------------------|
B|------------------| |--------------------------|
G|------------------| |--------------------------|
D|--6-6--3--5-5--2--| |--6-6--3—-5-5--2—-6-6—-3--|
A|--6-6--3--5-5--2--| |--6-6—-3-—5-5--2—-6-6—-3--|
E|--4-4--3--3-3--2--| |--4-4--3--3-3--2--4-4—-3--|
PM. . . . . . .

BRIDGE 3

(distorted, heavy muting)
E|--------------------------------------|
B|--------------------------------------|
G|--------------------------------------|
D|--------------------------------------|
A|--4-4-4-4-4-4--2-2-2-2-2-2—-7-7—-5-5—-|
E|--2-2-2-2-2-2--0-0-0-0-0-0—-5-5—-3-3—-|
PM. . . . . . . . . . . . . . . . .


OUTRO

(distorted)
E|------------------|
B|------------------|
G|------------------|
D|--6-6--3--5-5--2--|
A|--6-6--3--5-5--2--|
E|--4-4--3--3-3--2--|
PM. . . . . . .


Song Structure

INTRO
VERSE
PRE-VERSE
VERSE
PRE-CHORUS
CHORUS
BRIDGE x 8
BRIDGE 2 x 8
BRIDGE 3 x 8
CHORUS
OUTRO x 8