Alkaline Trio — All On Black

На этой странице Вы можете ознакомиться с 2 версиями подбора аккордов для гитары к песне "All On Black" группы (исполнителя) "Alkaline Trio".

#5 on the new album,good mourning,this is my favorite song from the new album,have fun!


INTRO
e-------------------------------------------------------|
b-------------------------------------------------------|
g--9997775554442200----10101010101010101010101010101010-|
d----------------------10101010101010101010101010101010-|
a-----------------------8-8-8-8-8-8-8-8-8-8-8-8-8-8-8-8-|
e-------------------------------------------------------|

VERSE 1(with piano)
e-------------------------------------------------|
b-------------------------------------------------|
g-2---------------2------------------2------------|
d-2-------3-------2-------3-----2----2----3-----2-|
a-0-------3-------0-------3-----2----0----3-----2-|
e---------1---------------1-----0---------1-----0-|

VERSE 2
e-------------------------------------------------|
b-------------------------------------------------|
g-2---------------2------------------2------------| do each note multiple times
d-2-------3-------2-------3-----2----2----3-----2-|
a-0-------3-------0-------3-----2----0----3-----2-|
e---------1---------------1-----0---------1-----0-|
p.m...............................................
VERSE 3
e-------------------------------------------------|
b-------------------------------------------------|
g-2---------------2------------------2------------|
d-2-------3-------2-------3-----2----2----3-----2-|
a-0-------3-------0-------3-----2----0----3-----2-|
e---------1---------------1-----0---------1-----0-|

PRE-CHORUS
e-------------------------------------------|
b-------------------------------------------|
g-3-----------3-----------------------------|
d-3-----2-----3------2-----3----------------|
a-1-----2-----1------2-----3----------------|
e-------0------------0-----1----------------|

CHORUS
e------------------------------------|
b------------------------------------|
g-12--------9------10----------------|
d-12(X16)--10(X8)--10----------------|
a-10-------10------10----------------|
e------------------------------------|

BRIDGE
e------------------------|
b------------------------|
g--5-------2-------------|
d--5(X16)--2(X8)--3------|
a--3-------0------3(X8)--|
e-----------------1------|
i dont have the second guitar part,but if i get it,ill tab it,good luck!

ORDER
intro-x2
verse1-x1
intro-x2
verse2-x1
prechorus-x1
chorus-x4
intro-x2
verse3-x1
prechorus-x1
chorus-x4
bridge-x3
intro-x1
by rocket dog


.= palm mute

E------------------------------------------------------- x2
B-------------------------------------------------------
G--9-9-9-7-7-7-5-5-5-4-4-4-2-2-0-5-5-5-5-5-5-5-5-5-5-5-5
D--7-7-7-7-7-7-7-7-7-5-5-5-0-0-0-3-3-3-3-3-3-3-3-3-3-3-3
A-------------------------------------------------------
E-------------------------------------------------------


E------------------------------------------------------- x2
B-------------------------------------------------------
G--9--------9-------------------------------------------
D--7---10---7---10---12---------------------------------
A-------8--------8---10---------------------------------
E-------------------------------------------------------


E------------------------------------------------------- x2
B-------------------------------------------------------
G--9-9-9-7-7-7-5-5-5-4-4-4-2-2-0-5-5-5-5-5-5-5-5-5-5-5-5
D--7-7-7-7-7-7-7-7-7-5-5-5-0-0-0-3-3-3-3-3-3-3-3-3-3-3-3
A-------------------------------------------------------
E-------------------------------------------------------


E------------------------------------------------------------------ x2
B------------------------------------------------------------------
G--9-9-9-9-9-9-9-9-9-9-9-9-9-9-9-9---------------------------------
D--7-7-7-7-7-7-7-7-7-7-7-7-7-7-7-7-10101010101010101010101010101010
A-----------------------------------8-8-8-8-8-8-8-8-8-8-8-8-8-8-8-8
E------------------------------------------------------------------
............................... ...............................


E-------------------------
B-------------------------
G-------------------------
D--12-12-12-12-12-12-12-12
A--10-10-10-10-10-10-10-10
E-------------------------
.......................


E--------------------------------------
B--------------------------------------
G--------------------------------------
D--------------------------------------
A--3----5----3----5-5-5-5-5-5-5-5------
E--1----3----1----3-3-3-3-3-3-3-3------


E-------------------------------------------------------------- x4
B--------------------------------------------------------------
G--121212121212121212121010-9-9--------------------------------
D--101010101010101010101010101010101010101010101212121212121212
A------------------------------12121212121212121010101010101010
E--------------------------------------------------------------


E------------------------------------------------------- x2
B-------------------------------------------------------
G--9-9-9-7-7-7-5-5-5-4-4-4-2-2-0-5-5-5-5-5-5-5-5-5-5-5-5
D--7-7-7-7-7-7-7-7-7-5-5-5-0-0-0-3-3-3-3-3-3-3-3-3-3-3-3
A-------------------------------------------------------
E-------------------------------------------------------


E------------------------------------------------------- x2
B-------------------------------------------------------
G--9--------9-------------------------------------------
D--7---10---7---10---12---------------------------------
A-------8--------8---10---------------------------------
E-------------------------------------------------------


E--------------------------------------
B--------------------------------------
G--------------------------------------
D--------------------------------------
A--3----5----3----5-5-5-5-5-5-5-5------
E--1----3----1----3-3-3-3-3-3-3-3------


E-------------------------------------------------------------- x4
B--------------------------------------------------------------
G--121212121212121212121010-9-9--------------------------------
D--101010101010101010101010101010101010101010101212121212121212
A------------------------------12121212121212121010101010101010
E--------------------------------------------------------------



E------------------------------------------------------------------ x2
B------------------------------------------------------------------
G------------------------------------------------------------------
D--5555555555555555------------------------------------------------
A--3333333333333333333333333333333377777777777777775555555533333333
E------------------111111111111111155555555555555553333333311111111
---................................................................

E------------------------------------------------- x6
B-------------------------------------------------
G--12-12-12-10-10-10--9--9--9-10-10-10--9--9-10-10
D--10-10-10-10-10-10-10-10-10-10-10-10-10-10-10-10
A-------------------------------------------------
E-------------------------------------------------


E---------------------------------
B---------------------------------
G--9-9-9-7-7-7-5-5-5-4-4-4-2-2-0--
D--7-7-7-7-7-7-7-7-7-5-5-5-0-0-0--
A--------------------------------3~
E--------------------------------1~

End.

I'm pretty sure this is right.