Alkaline Trio — Armageddon

На этой странице Вы можете ознакомиться с 4 версиями подбора аккордов для гитары к песне "Armageddon" группы (исполнителя) "Alkaline Trio".

The bass in this song is brilliant.

Intro
G|-----------------------|
D|-----------------------|
A|77677767-4444-0000-----|
E|-----------------------|

Intro2
G|---------------------------|
D|---------------------------|
A|77677767-4444-0000-2>------|
E|---------------------------|

Verse
G|-----------------------------------|
D|--------------------------------79-|
A|4444777744447777-0000-5757----79---|
E|--------------------------7777-----|

Verse2
G|-----------------------------------|
D|-----------------------------------|
A|4444777744447777-0000-5757----7979-|
E|--------------------------7777-----|

Verse3
G|-----------------------------------|
D|-----------------------------------|
A|4444777744447777-00000000-2222222--|
E|-----------------------------------|


Chorus
G|---------------------------|
D|---------------------------|
A|--7*>-4>-22222222-00000000-|
E|---------------------------|

Chorus2
G|------------------------------------------------|
D|-------575--------6666----6666------------------|
A|-7+>-57---750-4444----4444----22222222-00000000-|
E|------------------------------------------------|

Chorus3

First verse
G|---|
D|---|
A|-4-|
E|---|


Bridge1
G|------------------------------------------------|
D|----------------------------11-11-9-9-11-11-9-9-|
A|-44444444-66666666-99999999---------------------|
E|------------------------------------------------|



Bridge2
G|------------------------------------------------|
D|-----------------------11-11-9-9------11-9------|
A|-44444444-66666666-9999----------9999------11-9-|
E|------------------------------------------------|


Bridge3
G|--------------------------------------|
D|--------------------------------------|
A|-44444444-66666666-7777777777777777---|
E|--------------------------------------|

Chorus4
G|-----------------------------------------------|
D|-----99999999----6666----6666------------------|
A|--7+>--------4444----4444----22222222-00000000-|
E|-----------------------------------------------|

Chorus5
G|-------------------------------------------|
D|-----75----99------------------------------|
A|--7>---7777--77777777-4>-22222222-00000000-|
E|-------------------------------------------|

Order
Intro x2
Intro2 x1
Verse x1
Verse2 x1
Verse x1
Verse3 x1
Intro x2
Verse x1
Verse2 x1
Verse x1
Verse3 x1
Chorus x1
Chorus2 x1
Intro x2
Intro2 x1
First verse x1
Verse2 x1
Verse x1
Verse3 x1
Chorus x2
Bridge x1
Bridge2 x1
Bridge3 x1
Chorus4 x1
Chorus5 x1
End on A|7
Armageddon by Alkaline Trio
This is my first full tab but im sure it is 100% right
Enjoy!

Intro

|-----------------------------------------------------------
|-----------------------------------------------------------
|-9999-66--------9999-66-----9999998----44444444------------
|-7777-44-77-----7777-44-77-------------22222222------------
|-7777-44-77-----7777-44-77-------------22222222------------
|---------55-------------55---------------------------------

Verse 1

|-----------------------------------------------------------
|-----------------------------------------------------------
|-66666666-9999-4444-66666666-9999-4444---------------------
|-44444444-7777-2222-44444444-7777-2222---------------------
|-44444444-7777-2222-44444444-7777-2222---------------------
|----------------------------------------------------------- x2

Riff before Verse 2

|-----------------------------------------------------------
|-----------------------------------------------------------
|-9999-66-------9999-66-------------------------------------
|-7777-44-77----7777-44-77----------------------------------
|-7777-44-77----7777-44-77----------------------------------
|---------55------------55----------------------------------

Verse 2

|-----------------------------------------------------------
|-----------------------------------------------------------
|-66666666-9999-4444-66666666-9999-4444---------------------
|-44444444-7777-2222-44444444-7777-2222---------------------
|-44444444-7777-2222-44444444-7777-2222---------------------
|----------------------------------------------------------- x2

Chorus

|-----------------------------------------------------------
|-----------------------------------------------------------
|-9999999999999999-66666666-4444----------------------------
|-7777777777777777-44444444-2222-7777-----------------------
|-7777777777777777-44444444-2222-5555-----------------------
|--------------------------------5555----------------------- x2

Riff before Verse 3

|-----------------------------------------------------------
|-----------------------------------------------------------
|-9999-66-------9999-66-----9999998---44444444--------------
|-7777-44-77----7777-44-77------------22222222--------------
|-7777-44-77----7777-44-77------------22222222--------------
|---------55------------55----------------------------------




Verse 3

|----------------------------------------------------------------------------
|----------------------------------------------------------------------------
|-6----9----4----66666666-9999-4444----66666666-9999-4444-66666666-9999-4444-
|-6----9----4----44444444-7777-2222----44444444-7777-2222-44444444-7777-2222-
|-4----7----2----44444444-7777-2222----44444444-7777-2222-44444444-7777-2222-
|----------------------------------------------------------------------------

Chorus

|-----------------------------------------------------------
|-----------------------------------------------------------
|-9999999999999999-66666666-4444----------------------------
|-7777777777777777-44444444-2222-7777-----------------------
|-7777777777777777-44444444-2222-5555-----------------------
|--------------------------------5555----------------------- x2

Middle Riff

|-----------------------------------------------------------
|-----------------------------------------------------------
|-6666-4444-------------------------------------------------
|-4444-2222-77777777----------------------------------------
|-4444-2222-55555555----------------------------------------
|-----------55555555---------------------------------------- x4

Chorus

|-----------------------------------------------------------
|-----------------------------------------------------------
|-9999999999999999-66666666-4444----------------------------
|-7777777777777777-44444444-2222-7777-----------------------
|-7777777777777777-44444444-2222-5555-----------------------
|--------------------------------5555----------------------- x2

End on

|--------------------
|--------------------
|---9----------------
|---9----------------
|---7----------------
|--------------------

Lyrics

I wrote the words to this song on the back of a photograph
Behind your back it goes
A little something like this is way to big to miss
I got a letter in the mail
The sender failed to let me know where it came from
Opened it up and sure enough there we were
Arm in arm (up in arms) again
I know it's small but my last call's been called
Half an hour ago
I know it's late but do you think you could at least
Fix it for me
Then I'll go I'll go alone I swear
I won't tell a soul
I'll drink this beer and write in fear
Of a song everybody hates
Armageddon, let the light in
Before we say goodbye give us something to believe in
Armageddon, we're not begging
For too much I don't think
Just need a goodbye kiss (one last salute)
Before we sink
We sink
Alkaline Trio – Armageddon
This is a great song.
Tabbed by Chris Piper. I think this tab is rite!
This tab is in the order that the song is played

Intro
--------------------------------
--------------------------------
----------------99999988--------
9999664499996644--------44444444
7777442277774422--------22222222
--------------------------------

Verse

“I Wrote these words to this song on the back of a photograph”

--------------------------------
--------------------------------
--------------------------------
66666666999944446666666699994444
44444444777722224444444477772222
-------------------------------- (x2)





Intro Before Second Verse
----------------
----------------
----------------
9999664499996644
7777442277774422
----------------


Second Verse
--------------------------------
--------------------------------
--------------------------------
66666666999944446666666699994444
44444444777722224444444477772222
-------------------------------- (x2)


Chorus

--------------------------------
--------------------------------
--------------------------------
99999999999999996666666644442222
77777777777777774444444422220000
-------------------------------- (x2)




Intro Before third verse
--------------------------------
--------------------------------
----------------99999988--------
9999664499996644--------44444444
7777442277774422--------22222222
--------------------------------




Third Verse
---------------------------------
---------------------------------
---------------------------------
6-------9---4----6666666699994444
4-------7---2----4444444477772222 (x2) Don’t Strum once
---------------------------------
second time round




Chorus

--------------------------------
--------------------------------
--------------------------------
99999999999999996666666644442222
77777777777777774444444422220000
-------------------------------- (x2)

Middle Bit
----------------
----------------
----------------
6666444422222222
4444222200000000 (x4)
----------------
Last Courus

--------------------------------
--------------------------------
--------------------------------
99999999999999996666666644442222
77777777777777774444444422220000
-------------------------------- (x2)
-------------------------------------------------------------------------------
Armageddon – Alkaline Trio
-------------------------------------------------------------------------------

This is one of the songs of there album from here to infirmary! It sounds
right to me! But lets see what you think! The song out line might look a little
confusing but you’ll get it! And the Rhythm isn’t perfect! But hey I’m only new
to this!

INTRO 1
e|------------------------|
B|------------------------|
G|-99x99-66---------------|
D|-99x99-66-77------------|
A|-77x77-44-77------------|
E|----------55------------|

INTRO 2
e|---------------------------|
B|---------------------------|
G|-999999-88-----------------|
D|-xxxxxx-xx--9999-----------|
A|-777777-66--9999-----------|
E|------------7777-----------|

VERSE 1
e|--------------------------------|
B|--------------------------------|
G|-66666-------99999--------------|
D|-66666-77777-99999--------------|
A|-44444-77777-77777--------------|
E|-------55555--------------------|

VERSE 2
e|--------------------------------|
B|--------------------------------|
G|-66666--------------------------|
D|-66666-77777-22222--------------|
A|-44444-77777-22222--------------|
E|-------55555-00000--------------|

CHORUS
e|---------------------------------------------------|
B|---------------------------------------------------|
G|-9999999999--66666666--444444444-------------------|
D|-xxxxxxxxxx--66666666--444444444--777777777--------|
A|-7777777777--44444444--222222222--777777777--------|
E|----------------------------------555555555--------|

VERSE 3
e|-------------------|
B|-------------------|
G|-6-----9-----------|
D|-6--7--9-----------|
A|-4--7--7-----------|
E|----5--------------|

INTERLUDE
e|--------------------------------------|
B|--------------------------------------|
G|-6666666--88888888--999999999---------|
D|-6666666--88888888--999999999---------|
A|-4444444--66666666--777777777---------|
E|--------------------------------------|

INRTO 1 x2
INTRO 2 x1
VERSE 1 x3
VERSE 2 x1
INTRO 1 x2
VERSE 1 x3
VERSE 2 x1
CHORUS x2
INTRO 1 x2
INTRO 2 x1
VERSE 3 x1
VERSE 1 x2
VERSE 2 x1
CHORUS x2
INTERLUDE x4
CHORUS x2

ENJOY

===============================================================================